ISO-10303-21;
HEADER;
FILE_DESCRIPTION( ( 'Unknown' ), '1' );
FILE_NAME( 'C:/Documents and Settings/BEATRIZ/Escritorio/ORYMO/PLACAS PARA MOLDES OS/PLACAS OS-G1/OS_G1_100x130x046_/OS_G1_100x130x046_.stp', 'Unknown', ( 'Unknown' ), ( 'Unknown' ), 'XStep 1.0', 'Unknown', ' ' );
FILE_SCHEMA( ( 'CONFIG_CONTROL_DESIGN' ) );
ENDSEC;
DATA;
#1 = DESIGN_CONTEXT( '', #27, 'design' );
#2 = APPLICATION_PROTOCOL_DEFINITION( 'INTERNATIONAL STANDARD', 'config_control_design', 1994, #27 );
#3 = PRODUCT_CATEGORY_RELATIONSHIP( 'NONE', 'NONE', #28, #29 );
#4 = DATE_AND_TIME( #30, #31 );
#5 = DATE_TIME_ROLE( 'creation_date' );
#6 = DATE_TIME_ROLE( 'classification_date' );
#7 = PERSON_AND_ORGANIZATION_ROLE( 'creator' );
#8 = PERSON_AND_ORGANIZATION_ROLE( 'design_supplier' );
#9 = PERSON_AND_ORGANIZATION_ROLE( 'classification_officer' );
#10 = PERSON_AND_ORGANIZATION_ROLE( 'design_owner' );
#11 = APPROVAL_PERSON_ORGANIZATION( #32, #33, #34 );
#12 = APPROVAL_DATE_TIME( #4, #33 );
#13 = CC_DESIGN_APPROVAL( #33, ( #35, #36, #37 ) );
#14 = CC_DESIGN_DATE_AND_TIME_ASSIGNMENT( #4, #5, ( #37 ) );
#15 = CC_DESIGN_DATE_AND_TIME_ASSIGNMENT( #4, #6, ( #35 ) );
#16 = CC_DESIGN_PERSON_AND_ORGANIZATION_ASSIGNMENT( #32, #10, ( #38 ) );
#17 = CC_DESIGN_PERSON_AND_ORGANIZATION_ASSIGNMENT( #32, #7, ( #37 ) );
#18 = CC_DESIGN_PERSON_AND_ORGANIZATION_ASSIGNMENT( #32, #7, ( #36 ) );
#19 = CC_DESIGN_PERSON_AND_ORGANIZATION_ASSIGNMENT( #32, #8, ( #36 ) );
#20 = CC_DESIGN_SECURITY_CLASSIFICATION( #35, ( #36 ) );
#21 = CC_DESIGN_PERSON_AND_ORGANIZATION_ASSIGNMENT( #32, #9, ( #35 ) );
#22 = SHAPE_DEFINITION_REPRESENTATION( #39, #40 );
#23 =  ( GEOMETRIC_REPRESENTATION_CONTEXT( 3 )GLOBAL_UNCERTAINTY_ASSIGNED_CONTEXT( ( #43 ) )GLOBAL_UNIT_ASSIGNED_CONTEXT( ( #45, #46, #47 ) )REPRESENTATION_CONTEXT( 'NONE', 'WORKSPACE' ) );
#27 = APPLICATION_CONTEXT( 'CONFIGURATION CONTROLLED 3D DESIGNS OF MECHANICAL PARTS AND ASSEMBLIES' );
#28 = PRODUCT_CATEGORY( 'part', 'NONE' );
#29 = PRODUCT_RELATED_PRODUCT_CATEGORY( 'detail', ' ', ( #38 ) );
#30 = CALENDAR_DATE( 2004, 1, 6 );
#31 = LOCAL_TIME( 16, 7, 53.0000000000000, #49 );
#32 = PERSON_AND_ORGANIZATION( #50, #51 );
#33 = APPROVAL( #52, 'SOLID MODEL' );
#34 = APPROVAL_ROLE( 'APPROVED' );
#35 = SECURITY_CLASSIFICATION( '', '', #53 );
#36 = PRODUCT_DEFINITION_FORMATION_WITH_SPECIFIED_SOURCE( ' ', 'NONE', #38, .NOT_KNOWN. );
#37 = PRODUCT_DEFINITION( 'NONE', 'NONE', #36, #1 );
#38 = PRODUCT( '1', '1', 'PART-1-DESC', ( #54 ) );
#39 = PRODUCT_DEFINITION_SHAPE( 'NONE', 'NONE', #37 );
#40 = ADVANCED_BREP_SHAPE_REPRESENTATION( '1', ( #55, #56 ), #23 );
#43 = UNCERTAINTY_MEASURE_WITH_UNIT( LENGTH_MEASURE( 0.00100000000000000 ), #45, '', '' );
#45 =  ( CONVERSION_BASED_UNIT( 'MILLIMETRE', #59 )LENGTH_UNIT(  )NAMED_UNIT( #62 ) );
#46 =  ( CONVERSION_BASED_UNIT( 'RADIAN', #64 )NAMED_UNIT( #66 )PLANE_ANGLE_UNIT(  ) );
#47 =  ( NAMED_UNIT( #66 )SOLID_ANGLE_UNIT(  )SI_UNIT( $, .STERADIAN. ) );
#49 = COORDINATED_UNIVERSAL_TIME_OFFSET( 1, 0, .AHEAD. );
#50 = PERSON( '', 'UNSPECIFIED', $, $, $, $ );
#51 = ORGANIZATION( 'UNSPECIFIED', 'UNSPECIFIED', 'UNSPECIFIED' );
#52 = APPROVAL_STATUS( 'approved' );
#53 = SECURITY_CLASSIFICATION_LEVEL( 'unclassified' );
#54 = MECHANICAL_CONTEXT( '', #27, 'mechanical' );
#55 = MANIFOLD_SOLID_BREP( '1', #71 );
#56 = AXIS2_PLACEMENT_3D( '', #72, #73, #74 );
#59 = LENGTH_MEASURE_WITH_UNIT( LENGTH_MEASURE( 1.00000000000000 ), #75 );
#62 = DIMENSIONAL_EXPONENTS( 1.00000000000000, 0.000000000000000, 0.000000000000000, 0.000000000000000, 0.000000000000000, 0.000000000000000, 0.000000000000000 );
#64 = PLANE_ANGLE_MEASURE_WITH_UNIT( PLANE_ANGLE_MEASURE( 1.00000000000000 ), #76 );
#66 = DIMENSIONAL_EXPONENTS( 0.000000000000000, 0.000000000000000, 0.000000000000000, 0.000000000000000, 0.000000000000000, 0.000000000000000, 0.000000000000000 );
#71 = CLOSED_SHELL( '', ( #77, #78, #79, #80, #81, #82, #83, #84 ) );
#72 = CARTESIAN_POINT( '', ( 0.000000000000000, 0.000000000000000, 0.000000000000000 ) );
#73 = DIRECTION( '', ( 0.000000000000000, 0.000000000000000, 1.00000000000000 ) );
#74 = DIRECTION( '', ( 1.00000000000000, 0.000000000000000, 0.000000000000000 ) );
#75 =  ( NAMED_UNIT( #62 )LENGTH_UNIT(  )SI_UNIT( .MILLI., .METRE. ) );
#76 =  ( NAMED_UNIT( #66 )PLANE_ANGLE_UNIT(  )SI_UNIT( $, .RADIAN. ) );
#77 = ADVANCED_FACE( '', ( #87 ), #88, .F. );
#78 = ADVANCED_FACE( '', ( #89, #90, #91 ), #92, .F. );
#79 = ADVANCED_FACE( '', ( #93 ), #94, .F. );
#80 = ADVANCED_FACE( '', ( #95 ), #96, .F. );
#81 = ADVANCED_FACE( '', ( #97 ), #98, .F. );
#82 = ADVANCED_FACE( '', ( #99, #100, #101 ), #102, .T. );
#83 = ADVANCED_FACE( '', ( #103, #104 ), #105, .F. );
#84 = ADVANCED_FACE( '', ( #106, #107 ), #108, .F. );
#87 = FACE_OUTER_BOUND( '', #109, .T. );
#88 = PLANE( '', #110 );
#89 = FACE_BOUND( '', #111, .T. );
#90 = FACE_BOUND( '', #112, .T. );
#91 = FACE_OUTER_BOUND( '', #113, .T. );
#92 = PLANE( '', #114 );
#93 = FACE_OUTER_BOUND( '', #115, .T. );
#94 = PLANE( '', #116 );
#95 = FACE_OUTER_BOUND( '', #117, .T. );
#96 = PLANE( '', #118 );
#97 = FACE_OUTER_BOUND( '', #119, .T. );
#98 = PLANE( '', #120 );
#99 = FACE_BOUND( '', #121, .T. );
#100 = FACE_BOUND( '', #122, .T. );
#101 = FACE_OUTER_BOUND( '', #123, .T. );
#102 = PLANE( '', #124 );
#103 = FACE_OUTER_BOUND( '', #125, .T. );
#104 = FACE_OUTER_BOUND( '', #126, .T. );
#105 = CYLINDRICAL_SURFACE( '', #127, 3.30000000000000 );
#106 = FACE_OUTER_BOUND( '', #128, .T. );
#107 = FACE_OUTER_BOUND( '', #129, .T. );
#108 = CYLINDRICAL_SURFACE( '', #130, 3.30000000000000 );
#109 = EDGE_LOOP( '', ( #131, #132, #133, #134 ) );
#110 = AXIS2_PLACEMENT_3D( '', #135, #136, #137 );
#111 = EDGE_LOOP( '', ( #138 ) );
#112 = EDGE_LOOP( '', ( #139 ) );
#113 = EDGE_LOOP( '', ( #140, #141, #142, #143 ) );
#114 = AXIS2_PLACEMENT_3D( '', #144, #145, #146 );
#115 = EDGE_LOOP( '', ( #147, #148, #149, #150 ) );
#116 = AXIS2_PLACEMENT_3D( '', #151, #152, #153 );
#117 = EDGE_LOOP( '', ( #154, #155, #156, #157 ) );
#118 = AXIS2_PLACEMENT_3D( '', #158, #159, #160 );
#119 = EDGE_LOOP( '', ( #161, #162, #163, #164 ) );
#120 = AXIS2_PLACEMENT_3D( '', #165, #166, #167 );
#121 = EDGE_LOOP( '', ( #168 ) );
#122 = EDGE_LOOP( '', ( #169 ) );
#123 = EDGE_LOOP( '', ( #170, #171, #172, #173 ) );
#124 = AXIS2_PLACEMENT_3D( '', #174, #175, #176 );
#125 = EDGE_LOOP( '', ( #177 ) );
#126 = EDGE_LOOP( '', ( #178 ) );
#127 = AXIS2_PLACEMENT_3D( '', #179, #180, #181 );
#128 = EDGE_LOOP( '', ( #182 ) );
#129 = EDGE_LOOP( '', ( #183 ) );
#130 = AXIS2_PLACEMENT_3D( '', #184, #185, #186 );
#131 = ORIENTED_EDGE( '', *, *, #187, .T. );
#132 = ORIENTED_EDGE( '', *, *, #188, .F. );
#133 = ORIENTED_EDGE( '', *, *, #189, .F. );
#134 = ORIENTED_EDGE( '', *, *, #190, .T. );
#135 = CARTESIAN_POINT( '', ( 65.0000000000000, 10.0000000000000, 46.0000000000000 ) );
#136 = DIRECTION( '', ( -1.06752213906265E-016, -1.00000000000000, 0.000000000000000 ) );
#137 = DIRECTION( '', ( 1.00000000000000, -1.06752213906265E-016, 0.000000000000000 ) );
#138 = ORIENTED_EDGE( '', *, *, #191, .T. );
#139 = ORIENTED_EDGE( '', *, *, #192, .T. );
#140 = ORIENTED_EDGE( '', *, *, #187, .F. );
#141 = ORIENTED_EDGE( '', *, *, #193, .F. );
#142 = ORIENTED_EDGE( '', *, *, #194, .F. );
#143 = ORIENTED_EDGE( '', *, *, #195, .F. );
#144 = CARTESIAN_POINT( '', ( -65.0000000000000, 10.0000000000000, 0.000000000000000 ) );
#145 = DIRECTION( '', ( 0.000000000000000, 0.000000000000000, 1.00000000000000 ) );
#146 = DIRECTION( '', ( 1.00000000000000, 0.000000000000000, 0.000000000000000 ) );
#147 = ORIENTED_EDGE( '', *, *, #195, .T. );
#148 = ORIENTED_EDGE( '', *, *, #196, .F. );
#149 = ORIENTED_EDGE( '', *, *, #197, .F. );
#150 = ORIENTED_EDGE( '', *, *, #188, .T. );
#151 = CARTESIAN_POINT( '', ( -65.0000000000000, 10.0000000000000, 46.0000000000000 ) );
#152 = DIRECTION( '', ( 1.00000000000000, 6.93889390390722E-016, 0.000000000000000 ) );
#153 = DIRECTION( '', ( -6.93889390390722E-016, 1.00000000000000, 0.000000000000000 ) );
#154 = ORIENTED_EDGE( '', *, *, #194, .T. );
#155 = ORIENTED_EDGE( '', *, *, #198, .F. );
#156 = ORIENTED_EDGE( '', *, *, #199, .F. );
#157 = ORIENTED_EDGE( '', *, *, #196, .T. );
#158 = CARTESIAN_POINT( '', ( -65.0000000000000, -10.0000000000000, 46.0000000000000 ) );
#159 = DIRECTION( '', ( 0.000000000000000, 1.00000000000000, 0.000000000000000 ) );
#160 = DIRECTION( '', ( 0.000000000000000, 0.000000000000000, 1.00000000000000 ) );
#161 = ORIENTED_EDGE( '', *, *, #193, .T. );
#162 = ORIENTED_EDGE( '', *, *, #190, .F. );
#163 = ORIENTED_EDGE( '', *, *, #200, .F. );
#164 = ORIENTED_EDGE( '', *, *, #198, .T. );
#165 = CARTESIAN_POINT( '', ( 65.0000000000000, -10.0000000000000, 46.0000000000000 ) );
#166 = DIRECTION( '', ( -1.00000000000000, -6.93889390390722E-016, 0.000000000000000 ) );
#167 = DIRECTION( '', ( 6.93889390390722E-016, -1.00000000000000, 0.000000000000000 ) );
#168 = ORIENTED_EDGE( '', *, *, #201, .T. );
#169 = ORIENTED_EDGE( '', *, *, #202, .T. );
#170 = ORIENTED_EDGE( '', *, *, #189, .T. );
#171 = ORIENTED_EDGE( '', *, *, #197, .T. );
#172 = ORIENTED_EDGE( '', *, *, #199, .T. );
#173 = ORIENTED_EDGE( '', *, *, #200, .T. );
#174 = CARTESIAN_POINT( '', ( -65.0000000000000, 10.0000000000000, 46.0000000000000 ) );
#175 = DIRECTION( '', ( 0.000000000000000, 0.000000000000000, 1.00000000000000 ) );
#176 = DIRECTION( '', ( 1.00000000000000, 0.000000000000000, 0.000000000000000 ) );
#177 = ORIENTED_EDGE( '', *, *, #202, .F. );
#178 = ORIENTED_EDGE( '', *, *, #192, .F. );
#179 = CARTESIAN_POINT( '', ( -26.0000000000000, -6.24156253231091E-015, 46.0000000000000 ) );
#180 = DIRECTION( '', ( 0.000000000000000, 0.000000000000000, 1.00000000000000 ) );
#181 = DIRECTION( '', ( 0.000000000000000, -1.00000000000000, 0.000000000000000 ) );
#182 = ORIENTED_EDGE( '', *, *, #201, .F. );
#183 = ORIENTED_EDGE( '', *, *, #191, .F. );
#184 = CARTESIAN_POINT( '', ( 26.0000000000000, 1.26390507565449E-016, 46.0000000000000 ) );
#185 = DIRECTION( '', ( 0.000000000000000, 0.000000000000000, 1.00000000000000 ) );
#186 = DIRECTION( '', ( 0.000000000000000, -1.00000000000000, 0.000000000000000 ) );
#187 = EDGE_CURVE( '', #203, #204, #205, .T. );
#188 = EDGE_CURVE( '', #206, #204, #207, .T. );
#189 = EDGE_CURVE( '', #208, #206, #209, .T. );
#190 = EDGE_CURVE( '', #208, #203, #210, .T. );
#191 = EDGE_CURVE( '', #211, #211, #212, .T. );
#192 = EDGE_CURVE( '', #213, #213, #214, .T. );
#193 = EDGE_CURVE( '', #215, #203, #216, .T. );
#194 = EDGE_CURVE( '', #217, #215, #218, .T. );
#195 = EDGE_CURVE( '', #204, #217, #219, .T. );
#196 = EDGE_CURVE( '', #220, #217, #221, .T. );
#197 = EDGE_CURVE( '', #206, #220, #222, .T. );
#198 = EDGE_CURVE( '', #223, #215, #224, .T. );
#199 = EDGE_CURVE( '', #220, #223, #225, .T. );
#200 = EDGE_CURVE( '', #223, #208, #226, .T. );
#201 = EDGE_CURVE( '', #227, #227, #228, .T. );
#202 = EDGE_CURVE( '', #229, #229, #230, .T. );
#203 = VERTEX_POINT( '', #231 );
#204 = VERTEX_POINT( '', #232 );
#205 = LINE( '', #233, #234 );
#206 = VERTEX_POINT( '', #235 );
#207 = LINE( '', #236, #237 );
#208 = VERTEX_POINT( '', #238 );
#209 = LINE( '', #239, #240 );
#210 = LINE( '', #241, #242 );
#211 = VERTEX_POINT( '', #243 );
#212 = CIRCLE( '', #244, 3.30000000000000 );
#213 = VERTEX_POINT( '', #245 );
#214 = CIRCLE( '', #246, 3.30000000000000 );
#215 = VERTEX_POINT( '', #247 );
#216 = LINE( '', #248, #249 );
#217 = VERTEX_POINT( '', #250 );
#218 = LINE( '', #251, #252 );
#219 = LINE( '', #253, #254 );
#220 = VERTEX_POINT( '', #255 );
#221 = LINE( '', #256, #257 );
#222 = LINE( '', #258, #259 );
#223 = VERTEX_POINT( '', #260 );
#224 = LINE( '', #261, #262 );
#225 = LINE( '', #263, #264 );
#226 = LINE( '', #265, #266 );
#227 = VERTEX_POINT( '', #267 );
#228 = CIRCLE( '', #268, 3.30000000000000 );
#229 = VERTEX_POINT( '', #269 );
#230 = CIRCLE( '', #270, 3.30000000000000 );
#231 = CARTESIAN_POINT( '', ( 65.0000000000000, 10.0000000000000, 0.000000000000000 ) );
#232 = CARTESIAN_POINT( '', ( -65.0000000000000, 10.0000000000000, 0.000000000000000 ) );
#233 = CARTESIAN_POINT( '', ( 65.0000000000000, 10.0000000000000, 0.000000000000000 ) );
#234 = VECTOR( '', #271, 1000.00000000000 );
#235 = CARTESIAN_POINT( '', ( -65.0000000000000, 10.0000000000000, 46.0000000000000 ) );
#236 = CARTESIAN_POINT( '', ( -65.0000000000000, 10.0000000000000, 46.0000000000000 ) );
#237 = VECTOR( '', #272, 1000.00000000000 );
#238 = CARTESIAN_POINT( '', ( 65.0000000000000, 10.0000000000000, 46.0000000000000 ) );
#239 = CARTESIAN_POINT( '', ( 65.0000000000000, 10.0000000000000, 46.0000000000000 ) );
#240 = VECTOR( '', #273, 1000.00000000000 );
#241 = CARTESIAN_POINT( '', ( 65.0000000000000, 10.0000000000000, 46.0000000000000 ) );
#242 = VECTOR( '', #274, 1000.00000000000 );
#243 = CARTESIAN_POINT( '', ( 29.3000000000000, 1.26390507565449E-016, 0.000000000000000 ) );
#244 = AXIS2_PLACEMENT_3D( '', #275, #276, #277 );
#245 = CARTESIAN_POINT( '', ( -22.7000000000000, -6.24156253231091E-015, 0.000000000000000 ) );
#246 = AXIS2_PLACEMENT_3D( '', #278, #279, #280 );
#247 = CARTESIAN_POINT( '', ( 65.0000000000000, -10.0000000000000, 0.000000000000000 ) );
#248 = CARTESIAN_POINT( '', ( 65.0000000000000, -10.0000000000000, 0.000000000000000 ) );
#249 = VECTOR( '', #281, 1000.00000000000 );
#250 = CARTESIAN_POINT( '', ( -65.0000000000000, -10.0000000000000, 0.000000000000000 ) );
#251 = CARTESIAN_POINT( '', ( -65.0000000000000, -10.0000000000000, 0.000000000000000 ) );
#252 = VECTOR( '', #282, 1000.00000000000 );
#253 = CARTESIAN_POINT( '', ( -65.0000000000000, 10.0000000000000, 0.000000000000000 ) );
#254 = VECTOR( '', #283, 1000.00000000000 );
#255 = CARTESIAN_POINT( '', ( -65.0000000000000, -10.0000000000000, 46.0000000000000 ) );
#256 = CARTESIAN_POINT( '', ( -65.0000000000000, -10.0000000000000, 46.0000000000000 ) );
#257 = VECTOR( '', #284, 1000.00000000000 );
#258 = CARTESIAN_POINT( '', ( -65.0000000000000, 10.0000000000000, 46.0000000000000 ) );
#259 = VECTOR( '', #285, 1000.00000000000 );
#260 = CARTESIAN_POINT( '', ( 65.0000000000000, -10.0000000000000, 46.0000000000000 ) );
#261 = CARTESIAN_POINT( '', ( 65.0000000000000, -10.0000000000000, 46.0000000000000 ) );
#262 = VECTOR( '', #286, 1000.00000000000 );
#263 = CARTESIAN_POINT( '', ( -65.0000000000000, -10.0000000000000, 46.0000000000000 ) );
#264 = VECTOR( '', #287, 1000.00000000000 );
#265 = CARTESIAN_POINT( '', ( 65.0000000000000, -10.0000000000000, 46.0000000000000 ) );
#266 = VECTOR( '', #288, 1000.00000000000 );
#267 = CARTESIAN_POINT( '', ( 26.0000000000000, -3.30000000000000, 46.0000000000000 ) );
#268 = AXIS2_PLACEMENT_3D( '', #289, #290, #291 );
#269 = CARTESIAN_POINT( '', ( -26.0000000000000, -3.30000000000001, 46.0000000000000 ) );
#270 = AXIS2_PLACEMENT_3D( '', #292, #293, #294 );
#271 = DIRECTION( '', ( -1.00000000000000, 1.06752213906265E-016, 0.000000000000000 ) );
#272 = DIRECTION( '', ( 0.000000000000000, 0.000000000000000, -1.00000000000000 ) );
#273 = DIRECTION( '', ( -1.00000000000000, 1.06752213906265E-016, 0.000000000000000 ) );
#274 = DIRECTION( '', ( 0.000000000000000, 0.000000000000000, -1.00000000000000 ) );
#275 = CARTESIAN_POINT( '', ( 26.0000000000000, 1.26390507565449E-016, 0.000000000000000 ) );
#276 = DIRECTION( '', ( 0.000000000000000, 0.000000000000000, 1.00000000000000 ) );
#277 = DIRECTION( '', ( 1.00000000000000, 0.000000000000000, 0.000000000000000 ) );
#278 = CARTESIAN_POINT( '', ( -26.0000000000000, -6.24156253231091E-015, 0.000000000000000 ) );
#279 = DIRECTION( '', ( 0.000000000000000, 0.000000000000000, 1.00000000000000 ) );
#280 = DIRECTION( '', ( 1.00000000000000, 0.000000000000000, 0.000000000000000 ) );
#281 = DIRECTION( '', ( -6.93889390390722E-016, 1.00000000000000, 0.000000000000000 ) );
#282 = DIRECTION( '', ( 1.00000000000000, 0.000000000000000, 0.000000000000000 ) );
#283 = DIRECTION( '', ( 6.93889390390722E-016, -1.00000000000000, 0.000000000000000 ) );
#284 = DIRECTION( '', ( 0.000000000000000, 0.000000000000000, -1.00000000000000 ) );
#285 = DIRECTION( '', ( 6.93889390390722E-016, -1.00000000000000, 0.000000000000000 ) );
#286 = DIRECTION( '', ( 0.000000000000000, 0.000000000000000, -1.00000000000000 ) );
#287 = DIRECTION( '', ( 1.00000000000000, 0.000000000000000, 0.000000000000000 ) );
#288 = DIRECTION( '', ( -6.93889390390722E-016, 1.00000000000000, 0.000000000000000 ) );
#289 = CARTESIAN_POINT( '', ( 26.0000000000000, 1.26390507565449E-016, 46.0000000000000 ) );
#290 = DIRECTION( '', ( 0.000000000000000, 0.000000000000000, -1.00000000000000 ) );
#291 = DIRECTION( '', ( 0.000000000000000, -1.00000000000000, 0.000000000000000 ) );
#292 = CARTESIAN_POINT( '', ( -26.0000000000000, -6.24156253231091E-015, 46.0000000000000 ) );
#293 = DIRECTION( '', ( 0.000000000000000, 0.000000000000000, -1.00000000000000 ) );
#294 = DIRECTION( '', ( 0.000000000000000, -1.00000000000000, 0.000000000000000 ) );
ENDSEC;
END-ISO-10303-21;
