ISO-10303-21;
HEADER;
FILE_DESCRIPTION( ( 'Unknown' ), '1' );
FILE_NAME( 'M:/Piezas_3D/Placas_Par/G1 y G2/OS_G1_246x496x076_.stp', 'Unknown', ( 'Unknown' ), ( 'Unknown' ), 'PSStep 16.0.42', 'Unknown', '  ' );
FILE_SCHEMA( ( 'AUTOMOTIVE_DESIGN { 1 0 10303 214 1 1 1 1 }' ) );
ENDSEC;
DATA;
#1 = MECHANICAL_DESIGN_GEOMETRIC_PRESENTATION_REPRESENTATION( ' ', ( #10, #11, #12, #13, #14, #15, #16, #17 ), #6 );
#2 = PRODUCT_DEFINITION_CONTEXT( '', #18, 'design' );
#3 = APPLICATION_PROTOCOL_DEFINITION( 'international standard', 'automotive_design', 2001, #18 );
#4 = PRODUCT_CATEGORY_RELATIONSHIP( 'NONE', 'NONE', #19, #20 );
#5 = SHAPE_DEFINITION_REPRESENTATION( #21, #22 );
#6 =  ( GEOMETRIC_REPRESENTATION_CONTEXT( 3 )GLOBAL_UNCERTAINTY_ASSIGNED_CONTEXT( ( #25 ) )GLOBAL_UNIT_ASSIGNED_CONTEXT( ( #27, #28, #29 ) )REPRESENTATION_CONTEXT( 'NONE', 'WORKSPACE' ) );
#10 = STYLED_ITEM( '', ( #31 ), #32 );
#11 = STYLED_ITEM( '', ( #33 ), #34 );
#12 = STYLED_ITEM( '', ( #35 ), #36 );
#13 = STYLED_ITEM( '', ( #37 ), #38 );
#14 = STYLED_ITEM( '', ( #39 ), #40 );
#15 = STYLED_ITEM( '', ( #41 ), #42 );
#16 = STYLED_ITEM( '', ( #43 ), #44 );
#17 = STYLED_ITEM( '', ( #45 ), #46 );
#18 = APPLICATION_CONTEXT( 'core data for automotive mechanical design processes' );
#19 = PRODUCT_CATEGORY( 'part', 'NONE' );
#20 = PRODUCT_RELATED_PRODUCT_CATEGORY( 'detail', ' ', ( #47 ) );
#21 = PRODUCT_DEFINITION_SHAPE( 'NONE', 'NONE', #48 );
#22 = ADVANCED_BREP_SHAPE_REPRESENTATION( '1', ( #49, #50 ), #6 );
#25 = UNCERTAINTY_MEASURE_WITH_UNIT( LENGTH_MEASURE( 0.00100000000000000 ), #27, '', '' );
#27 =  ( CONVERSION_BASED_UNIT( 'MILLIMETRE', #53 )LENGTH_UNIT(  )NAMED_UNIT( #56 ) );
#28 =  ( NAMED_UNIT( #58 )PLANE_ANGLE_UNIT(  )SI_UNIT( $, .RADIAN. ) );
#29 =  ( NAMED_UNIT( #58 )SI_UNIT( $, .STERADIAN. )SOLID_ANGLE_UNIT(  ) );
#31 = PRESENTATION_STYLE_ASSIGNMENT( ( #64 ) );
#32 = ADVANCED_FACE( '', ( #65, #66, #67 ), #68, .F. );
#33 = PRESENTATION_STYLE_ASSIGNMENT( ( #69 ) );
#34 = ADVANCED_FACE( '', ( #70, #71 ), #72, .F. );
#35 = PRESENTATION_STYLE_ASSIGNMENT( ( #73 ) );
#36 = ADVANCED_FACE( '', ( #74, #75 ), #76, .F. );
#37 = PRESENTATION_STYLE_ASSIGNMENT( ( #77 ) );
#38 = ADVANCED_FACE( '', ( #78 ), #79, .F. );
#39 = PRESENTATION_STYLE_ASSIGNMENT( ( #80 ) );
#40 = ADVANCED_FACE( '', ( #81 ), #82, .F. );
#41 = PRESENTATION_STYLE_ASSIGNMENT( ( #83 ) );
#42 = ADVANCED_FACE( '', ( #84, #85, #86 ), #87, .T. );
#43 = PRESENTATION_STYLE_ASSIGNMENT( ( #88 ) );
#44 = ADVANCED_FACE( '', ( #89 ), #90, .F. );
#45 = PRESENTATION_STYLE_ASSIGNMENT( ( #91 ) );
#46 = ADVANCED_FACE( '', ( #92 ), #93, .F. );
#47 = PRODUCT( '1', '1', 'PART-1-DESC', ( #94 ) );
#48 = PRODUCT_DEFINITION( 'NONE', 'NONE', #95, #2 );
#49 = MANIFOLD_SOLID_BREP( '1', #96 );
#50 = AXIS2_PLACEMENT_3D( '', #97, #98, #99 );
#53 = LENGTH_MEASURE_WITH_UNIT( LENGTH_MEASURE( 1.00000000000000 ), #100 );
#56 = DIMENSIONAL_EXPONENTS( 1.00000000000000, 0.000000000000000, 0.000000000000000, 0.000000000000000, 0.000000000000000, 0.000000000000000, 0.000000000000000 );
#58 = DIMENSIONAL_EXPONENTS( 0.000000000000000, 0.000000000000000, 0.000000000000000, 0.000000000000000, 0.000000000000000, 0.000000000000000, 0.000000000000000 );
#64 = SURFACE_STYLE_USAGE( .BOTH., #101 );
#65 = FACE_BOUND( '', #102, .T. );
#66 = FACE_BOUND( '', #103, .T. );
#67 = FACE_OUTER_BOUND( '', #104, .T. );
#68 = PLANE( '', #105 );
#69 = SURFACE_STYLE_USAGE( .BOTH., #106 );
#70 = FACE_OUTER_BOUND( '', #107, .T. );
#71 = FACE_OUTER_BOUND( '', #108, .T. );
#72 = CYLINDRICAL_SURFACE( '', #109, 7.00000000000000 );
#73 = SURFACE_STYLE_USAGE( .BOTH., #110 );
#74 = FACE_OUTER_BOUND( '', #111, .T. );
#75 = FACE_OUTER_BOUND( '', #112, .T. );
#76 = CYLINDRICAL_SURFACE( '', #113, 7.00000000000000 );
#77 = SURFACE_STYLE_USAGE( .BOTH., #114 );
#78 = FACE_OUTER_BOUND( '', #115, .T. );
#79 = PLANE( '', #116 );
#80 = SURFACE_STYLE_USAGE( .BOTH., #117 );
#81 = FACE_OUTER_BOUND( '', #118, .T. );
#82 = PLANE( '', #119 );
#83 = SURFACE_STYLE_USAGE( .BOTH., #120 );
#84 = FACE_BOUND( '', #121, .T. );
#85 = FACE_BOUND( '', #122, .T. );
#86 = FACE_OUTER_BOUND( '', #123, .T. );
#87 = PLANE( '', #124 );
#88 = SURFACE_STYLE_USAGE( .BOTH., #125 );
#89 = FACE_OUTER_BOUND( '', #126, .T. );
#90 = PLANE( '', #127 );
#91 = SURFACE_STYLE_USAGE( .BOTH., #128 );
#92 = FACE_OUTER_BOUND( '', #129, .T. );
#93 = PLANE( '', #130 );
#94 = PRODUCT_CONTEXT( '', #18, 'mechanical' );
#95 = PRODUCT_DEFINITION_FORMATION_WITH_SPECIFIED_SOURCE( ' ', 'NONE', #47, .NOT_KNOWN. );
#96 = CLOSED_SHELL( '', ( #36, #32, #38, #42, #46, #44, #40, #34 ) );
#97 = CARTESIAN_POINT( '', ( 0.000000000000000, 0.000000000000000, 0.000000000000000 ) );
#98 = DIRECTION( '', ( 0.000000000000000, 0.000000000000000, 1.00000000000000 ) );
#99 = DIRECTION( '', ( 1.00000000000000, 0.000000000000000, 0.000000000000000 ) );
#100 =  ( LENGTH_UNIT(  )NAMED_UNIT( #56 )SI_UNIT( .MILLI., .METRE. ) );
#101 = SURFACE_SIDE_STYLE( '', ( #132 ) );
#102 = EDGE_LOOP( '', ( #133 ) );
#103 = EDGE_LOOP( '', ( #134 ) );
#104 = EDGE_LOOP( '', ( #135, #136, #137, #138 ) );
#105 = AXIS2_PLACEMENT_3D( '', #139, #140, #141 );
#106 = SURFACE_SIDE_STYLE( '', ( #142 ) );
#107 = EDGE_LOOP( '', ( #143 ) );
#108 = EDGE_LOOP( '', ( #144 ) );
#109 = AXIS2_PLACEMENT_3D( '', #145, #146, #147 );
#110 = SURFACE_SIDE_STYLE( '', ( #148 ) );
#111 = EDGE_LOOP( '', ( #149 ) );
#112 = EDGE_LOOP( '', ( #150 ) );
#113 = AXIS2_PLACEMENT_3D( '', #151, #152, #153 );
#114 = SURFACE_SIDE_STYLE( '', ( #154 ) );
#115 = EDGE_LOOP( '', ( #155, #156, #157, #158 ) );
#116 = AXIS2_PLACEMENT_3D( '', #159, #160, #161 );
#117 = SURFACE_SIDE_STYLE( '', ( #162 ) );
#118 = EDGE_LOOP( '', ( #163, #164, #165, #166 ) );
#119 = AXIS2_PLACEMENT_3D( '', #167, #168, #169 );
#120 = SURFACE_SIDE_STYLE( '', ( #170 ) );
#121 = EDGE_LOOP( '', ( #171 ) );
#122 = EDGE_LOOP( '', ( #172 ) );
#123 = EDGE_LOOP( '', ( #173, #174, #175, #176 ) );
#124 = AXIS2_PLACEMENT_3D( '', #177, #178, #179 );
#125 = SURFACE_SIDE_STYLE( '', ( #180 ) );
#126 = EDGE_LOOP( '', ( #181, #182, #183, #184 ) );
#127 = AXIS2_PLACEMENT_3D( '', #185, #186, #187 );
#128 = SURFACE_SIDE_STYLE( '', ( #188 ) );
#129 = EDGE_LOOP( '', ( #189, #190, #191, #192 ) );
#130 = AXIS2_PLACEMENT_3D( '', #193, #194, #195 );
#132 = SURFACE_STYLE_FILL_AREA( #196 );
#133 = ORIENTED_EDGE( '', *, *, #197, .T. );
#134 = ORIENTED_EDGE( '', *, *, #198, .T. );
#135 = ORIENTED_EDGE( '', *, *, #199, .F. );
#136 = ORIENTED_EDGE( '', *, *, #200, .F. );
#137 = ORIENTED_EDGE( '', *, *, #201, .F. );
#138 = ORIENTED_EDGE( '', *, *, #202, .F. );
#139 = CARTESIAN_POINT( '', ( -248.000000000000, 21.5000000000000, 0.000000000000000 ) );
#140 = DIRECTION( '', ( 0.000000000000000, 0.000000000000000, 1.00000000000000 ) );
#141 = DIRECTION( '', ( 1.00000000000000, 0.000000000000000, 0.000000000000000 ) );
#142 = SURFACE_STYLE_FILL_AREA( #203 );
#143 = ORIENTED_EDGE( '', *, *, #204, .F. );
#144 = ORIENTED_EDGE( '', *, *, #198, .F. );
#145 = CARTESIAN_POINT( '', ( -187.000000000000, 4.50000000000000, 76.0000000000000 ) );
#146 = DIRECTION( '', ( -0.000000000000000, -0.000000000000000, 1.00000000000000 ) );
#147 = DIRECTION( '', ( 0.000000000000000, -1.00000000000000, 0.000000000000000 ) );
#148 = SURFACE_STYLE_FILL_AREA( #205 );
#149 = ORIENTED_EDGE( '', *, *, #206, .F. );
#150 = ORIENTED_EDGE( '', *, *, #197, .F. );
#151 = CARTESIAN_POINT( '', ( 187.000000000000, 4.50000000000000, 76.0000000000000 ) );
#152 = DIRECTION( '', ( -0.000000000000000, -0.000000000000000, 1.00000000000000 ) );
#153 = DIRECTION( '', ( 0.000000000000000, -1.00000000000000, 0.000000000000000 ) );
#154 = SURFACE_STYLE_FILL_AREA( #207 );
#155 = ORIENTED_EDGE( '', *, *, #200, .T. );
#156 = ORIENTED_EDGE( '', *, *, #208, .F. );
#157 = ORIENTED_EDGE( '', *, *, #209, .F. );
#158 = ORIENTED_EDGE( '', *, *, #210, .T. );
#159 = CARTESIAN_POINT( '', ( 248.000000000000, -21.5000000000000, 76.0000000000000 ) );
#160 = DIRECTION( '', ( -1.00000000000000, 0.000000000000000, 0.000000000000000 ) );
#161 = DIRECTION( '', ( 0.000000000000000, 0.000000000000000, 1.00000000000000 ) );
#162 = SURFACE_STYLE_FILL_AREA( #211 );
#163 = ORIENTED_EDGE( '', *, *, #202, .T. );
#164 = ORIENTED_EDGE( '', *, *, #212, .F. );
#165 = ORIENTED_EDGE( '', *, *, #213, .F. );
#166 = ORIENTED_EDGE( '', *, *, #214, .T. );
#167 = CARTESIAN_POINT( '', ( -248.000000000000, 21.5000000000000, 76.0000000000000 ) );
#168 = DIRECTION( '', ( 1.00000000000000, 0.000000000000000, 0.000000000000000 ) );
#169 = DIRECTION( '', ( 0.000000000000000, 0.000000000000000, -1.00000000000000 ) );
#170 = SURFACE_STYLE_FILL_AREA( #215 );
#171 = ORIENTED_EDGE( '', *, *, #206, .T. );
#172 = ORIENTED_EDGE( '', *, *, #204, .T. );
#173 = ORIENTED_EDGE( '', *, *, #216, .T. );
#174 = ORIENTED_EDGE( '', *, *, #213, .T. );
#175 = ORIENTED_EDGE( '', *, *, #217, .T. );
#176 = ORIENTED_EDGE( '', *, *, #209, .T. );
#177 = CARTESIAN_POINT( '', ( -248.000000000000, 21.5000000000000, 76.0000000000000 ) );
#178 = DIRECTION( '', ( 0.000000000000000, 0.000000000000000, 1.00000000000000 ) );
#179 = DIRECTION( '', ( 1.00000000000000, 0.000000000000000, 0.000000000000000 ) );
#180 = SURFACE_STYLE_FILL_AREA( #218 );
#181 = ORIENTED_EDGE( '', *, *, #199, .T. );
#182 = ORIENTED_EDGE( '', *, *, #214, .F. );
#183 = ORIENTED_EDGE( '', *, *, #216, .F. );
#184 = ORIENTED_EDGE( '', *, *, #208, .T. );
#185 = CARTESIAN_POINT( '', ( 248.000000000000, 21.5000000000000, 76.0000000000000 ) );
#186 = DIRECTION( '', ( -2.79794109028517E-017, -1.00000000000000, 0.000000000000000 ) );
#187 = DIRECTION( '', ( 1.00000000000000, -2.79794109028517E-017, 0.000000000000000 ) );
#188 = SURFACE_STYLE_FILL_AREA( #219 );
#189 = ORIENTED_EDGE( '', *, *, #201, .T. );
#190 = ORIENTED_EDGE( '', *, *, #210, .F. );
#191 = ORIENTED_EDGE( '', *, *, #217, .F. );
#192 = ORIENTED_EDGE( '', *, *, #212, .T. );
#193 = CARTESIAN_POINT( '', ( -248.000000000000, -21.5000000000000, 76.0000000000000 ) );
#194 = DIRECTION( '', ( 6.29536745314164E-017, 1.00000000000000, 0.000000000000000 ) );
#195 = DIRECTION( '', ( -1.00000000000000, 6.29536745314164E-017, 0.000000000000000 ) );
#196 = FILL_AREA_STYLE( '', ( #220 ) );
#197 = EDGE_CURVE( '', #221, #221, #222, .T. );
#198 = EDGE_CURVE( '', #223, #223, #224, .T. );
#199 = EDGE_CURVE( '', #225, #226, #227, .T. );
#200 = EDGE_CURVE( '', #228, #225, #229, .T. );
#201 = EDGE_CURVE( '', #230, #228, #231, .T. );
#202 = EDGE_CURVE( '', #226, #230, #232, .T. );
#203 = FILL_AREA_STYLE( '', ( #233 ) );
#204 = EDGE_CURVE( '', #234, #234, #235, .T. );
#205 = FILL_AREA_STYLE( '', ( #236 ) );
#206 = EDGE_CURVE( '', #237, #237, #238, .T. );
#207 = FILL_AREA_STYLE( '', ( #239 ) );
#208 = EDGE_CURVE( '', #240, #225, #241, .T. );
#209 = EDGE_CURVE( '', #242, #240, #243, .T. );
#210 = EDGE_CURVE( '', #242, #228, #244, .T. );
#211 = FILL_AREA_STYLE( '', ( #245 ) );
#212 = EDGE_CURVE( '', #246, #230, #247, .T. );
#213 = EDGE_CURVE( '', #248, #246, #249, .T. );
#214 = EDGE_CURVE( '', #248, #226, #250, .T. );
#215 = FILL_AREA_STYLE( '', ( #251 ) );
#216 = EDGE_CURVE( '', #240, #248, #252, .T. );
#217 = EDGE_CURVE( '', #246, #242, #253, .T. );
#218 = FILL_AREA_STYLE( '', ( #254 ) );
#219 = FILL_AREA_STYLE( '', ( #255 ) );
#220 = FILL_AREA_STYLE_COLOUR( '', #256 );
#221 = VERTEX_POINT( '', #257 );
#222 = CIRCLE( '', #258, 7.00000000000000 );
#223 = VERTEX_POINT( '', #259 );
#224 = CIRCLE( '', #260, 7.00000000000000 );
#225 = VERTEX_POINT( '', #261 );
#226 = VERTEX_POINT( '', #262 );
#227 = LINE( '', #263, #264 );
#228 = VERTEX_POINT( '', #265 );
#229 = LINE( '', #266, #267 );
#230 = VERTEX_POINT( '', #268 );
#231 = LINE( '', #269, #270 );
#232 = LINE( '', #271, #272 );
#233 = FILL_AREA_STYLE_COLOUR( '', #273 );
#234 = VERTEX_POINT( '', #274 );
#235 = CIRCLE( '', #275, 7.00000000000000 );
#236 = FILL_AREA_STYLE_COLOUR( '', #276 );
#237 = VERTEX_POINT( '', #277 );
#238 = CIRCLE( '', #278, 7.00000000000000 );
#239 = FILL_AREA_STYLE_COLOUR( '', #279 );
#240 = VERTEX_POINT( '', #280 );
#241 = LINE( '', #281, #282 );
#242 = VERTEX_POINT( '', #283 );
#243 = LINE( '', #284, #285 );
#244 = LINE( '', #286, #287 );
#245 = FILL_AREA_STYLE_COLOUR( '', #288 );
#246 = VERTEX_POINT( '', #289 );
#247 = LINE( '', #290, #291 );
#248 = VERTEX_POINT( '', #292 );
#249 = LINE( '', #293, #294 );
#250 = LINE( '', #295, #296 );
#251 = FILL_AREA_STYLE_COLOUR( '', #297 );
#252 = LINE( '', #298, #299 );
#253 = LINE( '', #300, #301 );
#254 = FILL_AREA_STYLE_COLOUR( '', #302 );
#255 = FILL_AREA_STYLE_COLOUR( '', #303 );
#256 = COLOUR_RGB( '', 0.752941191196442, 0.752941191196442, 0.752941191196442 );
#257 = CARTESIAN_POINT( '', ( 194.000000000000, 4.50000000000000, 0.000000000000000 ) );
#258 = AXIS2_PLACEMENT_3D( '', #304, #305, #306 );
#259 = CARTESIAN_POINT( '', ( -180.000000000000, 4.50000000000000, 0.000000000000000 ) );
#260 = AXIS2_PLACEMENT_3D( '', #307, #308, #309 );
#261 = CARTESIAN_POINT( '', ( 248.000000000000, 21.5000000000000, 0.000000000000000 ) );
#262 = CARTESIAN_POINT( '', ( -248.000000000000, 21.5000000000000, 0.000000000000000 ) );
#263 = CARTESIAN_POINT( '', ( 248.000000000000, 21.5000000000000, 0.000000000000000 ) );
#264 = VECTOR( '', #310, 1000.00000000000 );
#265 = CARTESIAN_POINT( '', ( 248.000000000000, -21.5000000000000, 0.000000000000000 ) );
#266 = CARTESIAN_POINT( '', ( 248.000000000000, -21.5000000000000, 0.000000000000000 ) );
#267 = VECTOR( '', #311, 1000.00000000000 );
#268 = CARTESIAN_POINT( '', ( -248.000000000000, -21.5000000000000, 0.000000000000000 ) );
#269 = CARTESIAN_POINT( '', ( -248.000000000000, -21.5000000000000, 0.000000000000000 ) );
#270 = VECTOR( '', #312, 1000.00000000000 );
#271 = CARTESIAN_POINT( '', ( -248.000000000000, 21.5000000000000, 0.000000000000000 ) );
#272 = VECTOR( '', #313, 1000.00000000000 );
#273 = COLOUR_RGB( '', 0.752941191196442, 0.752941191196442, 0.752941191196442 );
#274 = CARTESIAN_POINT( '', ( -187.000000000000, -2.50000000000000, 76.0000000000000 ) );
#275 = AXIS2_PLACEMENT_3D( '', #314, #315, #316 );
#276 = COLOUR_RGB( '', 0.752941191196442, 0.752941191196442, 0.752941191196442 );
#277 = CARTESIAN_POINT( '', ( 187.000000000000, -2.50000000000000, 76.0000000000000 ) );
#278 = AXIS2_PLACEMENT_3D( '', #317, #318, #319 );
#279 = COLOUR_RGB( '', 0.752941191196442, 0.752941191196442, 0.752941191196442 );
#280 = CARTESIAN_POINT( '', ( 248.000000000000, 21.5000000000000, 76.0000000000000 ) );
#281 = CARTESIAN_POINT( '', ( 248.000000000000, 21.5000000000000, 76.0000000000000 ) );
#282 = VECTOR( '', #320, 1000.00000000000 );
#283 = CARTESIAN_POINT( '', ( 248.000000000000, -21.5000000000000, 76.0000000000000 ) );
#284 = CARTESIAN_POINT( '', ( 248.000000000000, -21.5000000000000, 76.0000000000000 ) );
#285 = VECTOR( '', #321, 1000.00000000000 );
#286 = CARTESIAN_POINT( '', ( 248.000000000000, -21.5000000000000, 76.0000000000000 ) );
#287 = VECTOR( '', #322, 1000.00000000000 );
#288 = COLOUR_RGB( '', 0.752941191196442, 0.752941191196442, 0.752941191196442 );
#289 = CARTESIAN_POINT( '', ( -248.000000000000, -21.5000000000000, 76.0000000000000 ) );
#290 = CARTESIAN_POINT( '', ( -248.000000000000, -21.5000000000000, 76.0000000000000 ) );
#291 = VECTOR( '', #323, 1000.00000000000 );
#292 = CARTESIAN_POINT( '', ( -248.000000000000, 21.5000000000000, 76.0000000000000 ) );
#293 = CARTESIAN_POINT( '', ( -248.000000000000, 21.5000000000000, 76.0000000000000 ) );
#294 = VECTOR( '', #324, 1000.00000000000 );
#295 = CARTESIAN_POINT( '', ( -248.000000000000, 21.5000000000000, 76.0000000000000 ) );
#296 = VECTOR( '', #325, 1000.00000000000 );
#297 = COLOUR_RGB( '', 0.752941191196442, 0.752941191196442, 0.752941191196442 );
#298 = CARTESIAN_POINT( '', ( 248.000000000000, 21.5000000000000, 76.0000000000000 ) );
#299 = VECTOR( '', #326, 1000.00000000000 );
#300 = CARTESIAN_POINT( '', ( -248.000000000000, -21.5000000000000, 76.0000000000000 ) );
#301 = VECTOR( '', #327, 1000.00000000000 );
#302 = COLOUR_RGB( '', 0.752941191196442, 0.752941191196442, 0.752941191196442 );
#303 = COLOUR_RGB( '', 0.752941191196442, 0.752941191196442, 0.752941191196442 );
#304 = CARTESIAN_POINT( '', ( 187.000000000000, 4.50000000000000, 0.000000000000000 ) );
#305 = DIRECTION( '', ( 0.000000000000000, 0.000000000000000, 1.00000000000000 ) );
#306 = DIRECTION( '', ( 1.00000000000000, 0.000000000000000, 0.000000000000000 ) );
#307 = CARTESIAN_POINT( '', ( -187.000000000000, 4.50000000000000, 0.000000000000000 ) );
#308 = DIRECTION( '', ( 0.000000000000000, 0.000000000000000, 1.00000000000000 ) );
#309 = DIRECTION( '', ( 1.00000000000000, 0.000000000000000, 0.000000000000000 ) );
#310 = DIRECTION( '', ( -1.00000000000000, 2.79794109028517E-017, 0.000000000000000 ) );
#311 = DIRECTION( '', ( 0.000000000000000, 1.00000000000000, 0.000000000000000 ) );
#312 = DIRECTION( '', ( 1.00000000000000, -6.29536745314164E-017, 0.000000000000000 ) );
#313 = DIRECTION( '', ( 0.000000000000000, -1.00000000000000, 0.000000000000000 ) );
#314 = CARTESIAN_POINT( '', ( -187.000000000000, 4.50000000000000, 76.0000000000000 ) );
#315 = DIRECTION( '', ( 0.000000000000000, 0.000000000000000, -1.00000000000000 ) );
#316 = DIRECTION( '', ( 0.000000000000000, -1.00000000000000, 0.000000000000000 ) );
#317 = CARTESIAN_POINT( '', ( 187.000000000000, 4.50000000000000, 76.0000000000000 ) );
#318 = DIRECTION( '', ( 0.000000000000000, 0.000000000000000, -1.00000000000000 ) );
#319 = DIRECTION( '', ( 0.000000000000000, -1.00000000000000, 0.000000000000000 ) );
#320 = DIRECTION( '', ( 0.000000000000000, 0.000000000000000, -1.00000000000000 ) );
#321 = DIRECTION( '', ( 0.000000000000000, 1.00000000000000, 0.000000000000000 ) );
#322 = DIRECTION( '', ( 0.000000000000000, 0.000000000000000, -1.00000000000000 ) );
#323 = DIRECTION( '', ( 0.000000000000000, 0.000000000000000, -1.00000000000000 ) );
#324 = DIRECTION( '', ( 0.000000000000000, -1.00000000000000, 0.000000000000000 ) );
#325 = DIRECTION( '', ( 0.000000000000000, 0.000000000000000, -1.00000000000000 ) );
#326 = DIRECTION( '', ( -1.00000000000000, 2.79794109028517E-017, 0.000000000000000 ) );
#327 = DIRECTION( '', ( 1.00000000000000, -6.29536745314164E-017, 0.000000000000000 ) );
ENDSEC;
END-ISO-10303-21;
