ISO-10303-21;
HEADER;
FILE_DESCRIPTION( ( 'Unknown' ), '1' );
FILE_NAME( 'M:/Piezas_3D/Placas_Par/G1 y G2/OS_G1_296x446x096_.stp', 'Unknown', ( 'Unknown' ), ( 'Unknown' ), 'PSStep 16.0.42', 'Unknown', '  ' );
FILE_SCHEMA( ( 'AUTOMOTIVE_DESIGN { 1 0 10303 214 1 1 1 1 }' ) );
ENDSEC;
DATA;
#1 = MECHANICAL_DESIGN_GEOMETRIC_PRESENTATION_REPRESENTATION( ' ', ( #10, #11, #12, #13, #14, #15, #16, #17 ), #6 );
#2 = PRODUCT_DEFINITION_CONTEXT( '', #18, 'design' );
#3 = APPLICATION_PROTOCOL_DEFINITION( 'international standard', 'automotive_design', 2001, #18 );
#4 = PRODUCT_CATEGORY_RELATIONSHIP( 'NONE', 'NONE', #19, #20 );
#5 = SHAPE_DEFINITION_REPRESENTATION( #21, #22 );
#6 =  ( GEOMETRIC_REPRESENTATION_CONTEXT( 3 )GLOBAL_UNCERTAINTY_ASSIGNED_CONTEXT( ( #25 ) )GLOBAL_UNIT_ASSIGNED_CONTEXT( ( #27, #28, #29 ) )REPRESENTATION_CONTEXT( 'NONE', 'WORKSPACE' ) );
#10 = STYLED_ITEM( '', ( #31 ), #32 );
#11 = STYLED_ITEM( '', ( #33 ), #34 );
#12 = STYLED_ITEM( '', ( #35 ), #36 );
#13 = STYLED_ITEM( '', ( #37 ), #38 );
#14 = STYLED_ITEM( '', ( #39 ), #40 );
#15 = STYLED_ITEM( '', ( #41 ), #42 );
#16 = STYLED_ITEM( '', ( #43 ), #44 );
#17 = STYLED_ITEM( '', ( #45 ), #46 );
#18 = APPLICATION_CONTEXT( 'core data for automotive mechanical design processes' );
#19 = PRODUCT_CATEGORY( 'part', 'NONE' );
#20 = PRODUCT_RELATED_PRODUCT_CATEGORY( 'detail', ' ', ( #47 ) );
#21 = PRODUCT_DEFINITION_SHAPE( 'NONE', 'NONE', #48 );
#22 = ADVANCED_BREP_SHAPE_REPRESENTATION( '1', ( #49, #50 ), #6 );
#25 = UNCERTAINTY_MEASURE_WITH_UNIT( LENGTH_MEASURE( 0.00100000000000000 ), #27, '', '' );
#27 =  ( CONVERSION_BASED_UNIT( 'MILLIMETRE', #53 )LENGTH_UNIT(  )NAMED_UNIT( #56 ) );
#28 =  ( NAMED_UNIT( #58 )PLANE_ANGLE_UNIT(  )SI_UNIT( $, .RADIAN. ) );
#29 =  ( NAMED_UNIT( #58 )SI_UNIT( $, .STERADIAN. )SOLID_ANGLE_UNIT(  ) );
#31 = PRESENTATION_STYLE_ASSIGNMENT( ( #64 ) );
#32 = ADVANCED_FACE( '', ( #65 ), #66, .F. );
#33 = PRESENTATION_STYLE_ASSIGNMENT( ( #67 ) );
#34 = ADVANCED_FACE( '', ( #68 ), #69, .F. );
#35 = PRESENTATION_STYLE_ASSIGNMENT( ( #70 ) );
#36 = ADVANCED_FACE( '', ( #71, #72, #73 ), #74, .F. );
#37 = PRESENTATION_STYLE_ASSIGNMENT( ( #75 ) );
#38 = ADVANCED_FACE( '', ( #76 ), #77, .F. );
#39 = PRESENTATION_STYLE_ASSIGNMENT( ( #78 ) );
#40 = ADVANCED_FACE( '', ( #79, #80, #81 ), #82, .T. );
#41 = PRESENTATION_STYLE_ASSIGNMENT( ( #83 ) );
#42 = ADVANCED_FACE( '', ( #84 ), #85, .F. );
#43 = PRESENTATION_STYLE_ASSIGNMENT( ( #86 ) );
#44 = ADVANCED_FACE( '', ( #87, #88 ), #89, .F. );
#45 = PRESENTATION_STYLE_ASSIGNMENT( ( #90 ) );
#46 = ADVANCED_FACE( '', ( #91, #92 ), #93, .F. );
#47 = PRODUCT( '1', '1', 'PART-1-DESC', ( #94 ) );
#48 = PRODUCT_DEFINITION( 'NONE', 'NONE', #95, #2 );
#49 = MANIFOLD_SOLID_BREP( '1', #96 );
#50 = AXIS2_PLACEMENT_3D( '', #97, #98, #99 );
#53 = LENGTH_MEASURE_WITH_UNIT( LENGTH_MEASURE( 1.00000000000000 ), #100 );
#56 = DIMENSIONAL_EXPONENTS( 1.00000000000000, 0.000000000000000, 0.000000000000000, 0.000000000000000, 0.000000000000000, 0.000000000000000, 0.000000000000000 );
#58 = DIMENSIONAL_EXPONENTS( 0.000000000000000, 0.000000000000000, 0.000000000000000, 0.000000000000000, 0.000000000000000, 0.000000000000000, 0.000000000000000 );
#64 = SURFACE_STYLE_USAGE( .BOTH., #101 );
#65 = FACE_OUTER_BOUND( '', #102, .T. );
#66 = PLANE( '', #103 );
#67 = SURFACE_STYLE_USAGE( .BOTH., #104 );
#68 = FACE_OUTER_BOUND( '', #105, .T. );
#69 = PLANE( '', #106 );
#70 = SURFACE_STYLE_USAGE( .BOTH., #107 );
#71 = FACE_BOUND( '', #108, .T. );
#72 = FACE_BOUND( '', #109, .T. );
#73 = FACE_OUTER_BOUND( '', #110, .T. );
#74 = PLANE( '', #111 );
#75 = SURFACE_STYLE_USAGE( .BOTH., #112 );
#76 = FACE_OUTER_BOUND( '', #113, .T. );
#77 = PLANE( '', #114 );
#78 = SURFACE_STYLE_USAGE( .BOTH., #115 );
#79 = FACE_BOUND( '', #116, .T. );
#80 = FACE_BOUND( '', #117, .T. );
#81 = FACE_OUTER_BOUND( '', #118, .T. );
#82 = PLANE( '', #119 );
#83 = SURFACE_STYLE_USAGE( .BOTH., #120 );
#84 = FACE_OUTER_BOUND( '', #121, .T. );
#85 = PLANE( '', #122 );
#86 = SURFACE_STYLE_USAGE( .BOTH., #123 );
#87 = FACE_OUTER_BOUND( '', #124, .T. );
#88 = FACE_OUTER_BOUND( '', #125, .T. );
#89 = CYLINDRICAL_SURFACE( '', #126, 7.00000000000000 );
#90 = SURFACE_STYLE_USAGE( .BOTH., #127 );
#91 = FACE_OUTER_BOUND( '', #128, .T. );
#92 = FACE_OUTER_BOUND( '', #129, .T. );
#93 = CYLINDRICAL_SURFACE( '', #130, 7.00000000000000 );
#94 = PRODUCT_CONTEXT( '', #18, 'mechanical' );
#95 = PRODUCT_DEFINITION_FORMATION_WITH_SPECIFIED_SOURCE( ' ', 'NONE', #47, .NOT_KNOWN. );
#96 = CLOSED_SHELL( '', ( #44, #46, #32, #38, #40, #36, #42, #34 ) );
#97 = CARTESIAN_POINT( '', ( 0.000000000000000, 0.000000000000000, 0.000000000000000 ) );
#98 = DIRECTION( '', ( 0.000000000000000, 0.000000000000000, 1.00000000000000 ) );
#99 = DIRECTION( '', ( 1.00000000000000, 0.000000000000000, 0.000000000000000 ) );
#100 =  ( LENGTH_UNIT(  )NAMED_UNIT( #56 )SI_UNIT( .MILLI., .METRE. ) );
#101 = SURFACE_SIDE_STYLE( '', ( #132 ) );
#102 = EDGE_LOOP( '', ( #133, #134, #135, #136 ) );
#103 = AXIS2_PLACEMENT_3D( '', #137, #138, #139 );
#104 = SURFACE_SIDE_STYLE( '', ( #140 ) );
#105 = EDGE_LOOP( '', ( #141, #142, #143, #144 ) );
#106 = AXIS2_PLACEMENT_3D( '', #145, #146, #147 );
#107 = SURFACE_SIDE_STYLE( '', ( #148 ) );
#108 = EDGE_LOOP( '', ( #149 ) );
#109 = EDGE_LOOP( '', ( #150 ) );
#110 = EDGE_LOOP( '', ( #151, #152, #153, #154 ) );
#111 = AXIS2_PLACEMENT_3D( '', #155, #156, #157 );
#112 = SURFACE_SIDE_STYLE( '', ( #158 ) );
#113 = EDGE_LOOP( '', ( #159, #160, #161, #162 ) );
#114 = AXIS2_PLACEMENT_3D( '', #163, #164, #165 );
#115 = SURFACE_SIDE_STYLE( '', ( #166 ) );
#116 = EDGE_LOOP( '', ( #167 ) );
#117 = EDGE_LOOP( '', ( #168 ) );
#118 = EDGE_LOOP( '', ( #169, #170, #171, #172 ) );
#119 = AXIS2_PLACEMENT_3D( '', #173, #174, #175 );
#120 = SURFACE_SIDE_STYLE( '', ( #176 ) );
#121 = EDGE_LOOP( '', ( #177, #178, #179, #180 ) );
#122 = AXIS2_PLACEMENT_3D( '', #181, #182, #183 );
#123 = SURFACE_SIDE_STYLE( '', ( #184 ) );
#124 = EDGE_LOOP( '', ( #185 ) );
#125 = EDGE_LOOP( '', ( #186 ) );
#126 = AXIS2_PLACEMENT_3D( '', #187, #188, #189 );
#127 = SURFACE_SIDE_STYLE( '', ( #190 ) );
#128 = EDGE_LOOP( '', ( #191 ) );
#129 = EDGE_LOOP( '', ( #192 ) );
#130 = AXIS2_PLACEMENT_3D( '', #193, #194, #195 );
#132 = SURFACE_STYLE_FILL_AREA( #196 );
#133 = ORIENTED_EDGE( '', *, *, #197, .T. );
#134 = ORIENTED_EDGE( '', *, *, #198, .F. );
#135 = ORIENTED_EDGE( '', *, *, #199, .F. );
#136 = ORIENTED_EDGE( '', *, *, #200, .T. );
#137 = CARTESIAN_POINT( '', ( 223.000000000000, 21.5000000000000, 96.0000000000000 ) );
#138 = DIRECTION( '', ( -1.47801551764840E-016, -1.00000000000000, 0.000000000000000 ) );
#139 = DIRECTION( '', ( 1.00000000000000, -1.47801551764840E-016, 0.000000000000000 ) );
#140 = SURFACE_STYLE_FILL_AREA( #201 );
#141 = ORIENTED_EDGE( '', *, *, #202, .T. );
#142 = ORIENTED_EDGE( '', *, *, #203, .F. );
#143 = ORIENTED_EDGE( '', *, *, #204, .F. );
#144 = ORIENTED_EDGE( '', *, *, #205, .T. );
#145 = CARTESIAN_POINT( '', ( -223.000000000000, -21.5000000000000, 96.0000000000000 ) );
#146 = DIRECTION( '', ( 6.22322323220379E-017, 1.00000000000000, 0.000000000000000 ) );
#147 = DIRECTION( '', ( -1.00000000000000, 6.22322323220379E-017, 0.000000000000000 ) );
#148 = SURFACE_STYLE_FILL_AREA( #206 );
#149 = ORIENTED_EDGE( '', *, *, #207, .T. );
#150 = ORIENTED_EDGE( '', *, *, #208, .T. );
#151 = ORIENTED_EDGE( '', *, *, #199, .T. );
#152 = ORIENTED_EDGE( '', *, *, #209, .T. );
#153 = ORIENTED_EDGE( '', *, *, #204, .T. );
#154 = ORIENTED_EDGE( '', *, *, #210, .T. );
#155 = CARTESIAN_POINT( '', ( 223.000000000000, 21.5000000000000, 96.0000000000000 ) );
#156 = DIRECTION( '', ( 0.000000000000000, 0.000000000000000, -1.00000000000000 ) );
#157 = DIRECTION( '', ( -1.00000000000000, 0.000000000000000, 0.000000000000000 ) );
#158 = SURFACE_STYLE_FILL_AREA( #211 );
#159 = ORIENTED_EDGE( '', *, *, #212, .T. );
#160 = ORIENTED_EDGE( '', *, *, #205, .F. );
#161 = ORIENTED_EDGE( '', *, *, #209, .F. );
#162 = ORIENTED_EDGE( '', *, *, #198, .T. );
#163 = CARTESIAN_POINT( '', ( -223.000000000000, 21.5000000000000, 96.0000000000000 ) );
#164 = DIRECTION( '', ( 1.00000000000000, 6.45478502689045E-016, 0.000000000000000 ) );
#165 = DIRECTION( '', ( -6.45478502689045E-016, 1.00000000000000, 0.000000000000000 ) );
#166 = SURFACE_STYLE_FILL_AREA( #213 );
#167 = ORIENTED_EDGE( '', *, *, #214, .F. );
#168 = ORIENTED_EDGE( '', *, *, #215, .F. );
#169 = ORIENTED_EDGE( '', *, *, #197, .F. );
#170 = ORIENTED_EDGE( '', *, *, #216, .F. );
#171 = ORIENTED_EDGE( '', *, *, #202, .F. );
#172 = ORIENTED_EDGE( '', *, *, #212, .F. );
#173 = CARTESIAN_POINT( '', ( 223.000000000000, 21.5000000000000, 0.000000000000000 ) );
#174 = DIRECTION( '', ( 0.000000000000000, 0.000000000000000, -1.00000000000000 ) );
#175 = DIRECTION( '', ( -1.00000000000000, 0.000000000000000, 0.000000000000000 ) );
#176 = SURFACE_STYLE_FILL_AREA( #217 );
#177 = ORIENTED_EDGE( '', *, *, #216, .T. );
#178 = ORIENTED_EDGE( '', *, *, #200, .F. );
#179 = ORIENTED_EDGE( '', *, *, #210, .F. );
#180 = ORIENTED_EDGE( '', *, *, #203, .T. );
#181 = CARTESIAN_POINT( '', ( 223.000000000000, -21.5000000000000, 96.0000000000000 ) );
#182 = DIRECTION( '', ( -1.00000000000000, 0.000000000000000, 0.000000000000000 ) );
#183 = DIRECTION( '', ( 0.000000000000000, 0.000000000000000, 1.00000000000000 ) );
#184 = SURFACE_STYLE_FILL_AREA( #218 );
#185 = ORIENTED_EDGE( '', *, *, #214, .T. );
#186 = ORIENTED_EDGE( '', *, *, #207, .F. );
#187 = CARTESIAN_POINT( '', ( 162.000000000000, 4.50000000000008, 96.0000000000000 ) );
#188 = DIRECTION( '', ( -0.000000000000000, -0.000000000000000, 1.00000000000000 ) );
#189 = DIRECTION( '', ( 0.000000000000000, -1.00000000000000, 0.000000000000000 ) );
#190 = SURFACE_STYLE_FILL_AREA( #219 );
#191 = ORIENTED_EDGE( '', *, *, #215, .T. );
#192 = ORIENTED_EDGE( '', *, *, #208, .F. );
#193 = CARTESIAN_POINT( '', ( -162.000000000000, 4.50000000000000, 96.0000000000000 ) );
#194 = DIRECTION( '', ( -0.000000000000000, -0.000000000000000, 1.00000000000000 ) );
#195 = DIRECTION( '', ( 0.000000000000000, -1.00000000000000, 0.000000000000000 ) );
#196 = FILL_AREA_STYLE( '', ( #220 ) );
#197 = EDGE_CURVE( '', #221, #222, #223, .T. );
#198 = EDGE_CURVE( '', #224, #222, #225, .T. );
#199 = EDGE_CURVE( '', #226, #224, #227, .T. );
#200 = EDGE_CURVE( '', #226, #221, #228, .T. );
#201 = FILL_AREA_STYLE( '', ( #229 ) );
#202 = EDGE_CURVE( '', #230, #231, #232, .T. );
#203 = EDGE_CURVE( '', #233, #231, #234, .T. );
#204 = EDGE_CURVE( '', #235, #233, #236, .T. );
#205 = EDGE_CURVE( '', #235, #230, #237, .T. );
#206 = FILL_AREA_STYLE( '', ( #238 ) );
#207 = EDGE_CURVE( '', #239, #239, #240, .T. );
#208 = EDGE_CURVE( '', #241, #241, #242, .T. );
#209 = EDGE_CURVE( '', #224, #235, #243, .T. );
#210 = EDGE_CURVE( '', #233, #226, #244, .T. );
#211 = FILL_AREA_STYLE( '', ( #245 ) );
#212 = EDGE_CURVE( '', #222, #230, #246, .T. );
#213 = FILL_AREA_STYLE( '', ( #247 ) );
#214 = EDGE_CURVE( '', #248, #248, #249, .T. );
#215 = EDGE_CURVE( '', #250, #250, #251, .T. );
#216 = EDGE_CURVE( '', #231, #221, #252, .T. );
#217 = FILL_AREA_STYLE( '', ( #253 ) );
#218 = FILL_AREA_STYLE( '', ( #254 ) );
#219 = FILL_AREA_STYLE( '', ( #255 ) );
#220 = FILL_AREA_STYLE_COLOUR( '', #256 );
#221 = VERTEX_POINT( '', #257 );
#222 = VERTEX_POINT( '', #258 );
#223 = LINE( '', #259, #260 );
#224 = VERTEX_POINT( '', #261 );
#225 = LINE( '', #262, #263 );
#226 = VERTEX_POINT( '', #264 );
#227 = LINE( '', #265, #266 );
#228 = LINE( '', #267, #268 );
#229 = FILL_AREA_STYLE_COLOUR( '', #269 );
#230 = VERTEX_POINT( '', #270 );
#231 = VERTEX_POINT( '', #271 );
#232 = LINE( '', #272, #273 );
#233 = VERTEX_POINT( '', #274 );
#234 = LINE( '', #275, #276 );
#235 = VERTEX_POINT( '', #277 );
#236 = LINE( '', #278, #279 );
#237 = LINE( '', #280, #281 );
#238 = FILL_AREA_STYLE_COLOUR( '', #282 );
#239 = VERTEX_POINT( '', #283 );
#240 = CIRCLE( '', #284, 7.00000000000000 );
#241 = VERTEX_POINT( '', #285 );
#242 = CIRCLE( '', #286, 7.00000000000000 );
#243 = LINE( '', #287, #288 );
#244 = LINE( '', #289, #290 );
#245 = FILL_AREA_STYLE_COLOUR( '', #291 );
#246 = LINE( '', #292, #293 );
#247 = FILL_AREA_STYLE_COLOUR( '', #294 );
#248 = VERTEX_POINT( '', #295 );
#249 = CIRCLE( '', #296, 7.00000000000000 );
#250 = VERTEX_POINT( '', #297 );
#251 = CIRCLE( '', #298, 7.00000000000000 );
#252 = LINE( '', #299, #300 );
#253 = FILL_AREA_STYLE_COLOUR( '', #301 );
#254 = FILL_AREA_STYLE_COLOUR( '', #302 );
#255 = FILL_AREA_STYLE_COLOUR( '', #303 );
#256 = COLOUR_RGB( '', 0.752941191196442, 0.752941191196442, 0.752941191196442 );
#257 = CARTESIAN_POINT( '', ( 223.000000000000, 21.5000000000000, 0.000000000000000 ) );
#258 = CARTESIAN_POINT( '', ( -223.000000000000, 21.5000000000000, 0.000000000000000 ) );
#259 = CARTESIAN_POINT( '', ( 223.000000000000, 21.5000000000000, 0.000000000000000 ) );
#260 = VECTOR( '', #304, 1000.00000000000 );
#261 = CARTESIAN_POINT( '', ( -223.000000000000, 21.5000000000000, 96.0000000000000 ) );
#262 = CARTESIAN_POINT( '', ( -223.000000000000, 21.5000000000000, 96.0000000000000 ) );
#263 = VECTOR( '', #305, 1000.00000000000 );
#264 = CARTESIAN_POINT( '', ( 223.000000000000, 21.5000000000000, 96.0000000000000 ) );
#265 = CARTESIAN_POINT( '', ( 223.000000000000, 21.5000000000000, 96.0000000000000 ) );
#266 = VECTOR( '', #306, 1000.00000000000 );
#267 = CARTESIAN_POINT( '', ( 223.000000000000, 21.5000000000000, 96.0000000000000 ) );
#268 = VECTOR( '', #307, 1000.00000000000 );
#269 = COLOUR_RGB( '', 0.752941191196442, 0.752941191196442, 0.752941191196442 );
#270 = CARTESIAN_POINT( '', ( -223.000000000000, -21.5000000000000, 0.000000000000000 ) );
#271 = CARTESIAN_POINT( '', ( 223.000000000000, -21.5000000000000, 0.000000000000000 ) );
#272 = CARTESIAN_POINT( '', ( -223.000000000000, -21.5000000000000, 0.000000000000000 ) );
#273 = VECTOR( '', #308, 1000.00000000000 );
#274 = CARTESIAN_POINT( '', ( 223.000000000000, -21.5000000000000, 96.0000000000000 ) );
#275 = CARTESIAN_POINT( '', ( 223.000000000000, -21.5000000000000, 96.0000000000000 ) );
#276 = VECTOR( '', #309, 1000.00000000000 );
#277 = CARTESIAN_POINT( '', ( -223.000000000000, -21.5000000000000, 96.0000000000000 ) );
#278 = CARTESIAN_POINT( '', ( -223.000000000000, -21.5000000000000, 96.0000000000000 ) );
#279 = VECTOR( '', #310, 1000.00000000000 );
#280 = CARTESIAN_POINT( '', ( -223.000000000000, -21.5000000000000, 96.0000000000000 ) );
#281 = VECTOR( '', #311, 1000.00000000000 );
#282 = COLOUR_RGB( '', 0.752941191196442, 0.752941191196442, 0.752941191196442 );
#283 = CARTESIAN_POINT( '', ( 162.000000000000, -2.49999999999992, 96.0000000000000 ) );
#284 = AXIS2_PLACEMENT_3D( '', #312, #313, #314 );
#285 = CARTESIAN_POINT( '', ( -162.000000000000, -2.50000000000000, 96.0000000000000 ) );
#286 = AXIS2_PLACEMENT_3D( '', #315, #316, #317 );
#287 = CARTESIAN_POINT( '', ( -223.000000000000, 21.5000000000000, 96.0000000000000 ) );
#288 = VECTOR( '', #318, 1000.00000000000 );
#289 = CARTESIAN_POINT( '', ( 223.000000000000, -21.5000000000000, 96.0000000000000 ) );
#290 = VECTOR( '', #319, 1000.00000000000 );
#291 = COLOUR_RGB( '', 0.752941191196442, 0.752941191196442, 0.752941191196442 );
#292 = CARTESIAN_POINT( '', ( -223.000000000000, 21.5000000000000, 0.000000000000000 ) );
#293 = VECTOR( '', #320, 1000.00000000000 );
#294 = COLOUR_RGB( '', 0.752941191196442, 0.752941191196442, 0.752941191196442 );
#295 = CARTESIAN_POINT( '', ( 155.000000000000, 4.50000000000008, 0.000000000000000 ) );
#296 = AXIS2_PLACEMENT_3D( '', #321, #322, #323 );
#297 = CARTESIAN_POINT( '', ( -169.000000000000, 4.50000000000000, 0.000000000000000 ) );
#298 = AXIS2_PLACEMENT_3D( '', #324, #325, #326 );
#299 = CARTESIAN_POINT( '', ( 223.000000000000, -21.5000000000000, 0.000000000000000 ) );
#300 = VECTOR( '', #327, 1000.00000000000 );
#301 = COLOUR_RGB( '', 0.752941191196442, 0.752941191196442, 0.752941191196442 );
#302 = COLOUR_RGB( '', 0.752941191196442, 0.752941191196442, 0.752941191196442 );
#303 = COLOUR_RGB( '', 0.752941191196442, 0.752941191196442, 0.752941191196442 );
#304 = DIRECTION( '', ( -1.00000000000000, 1.47801551764840E-016, 0.000000000000000 ) );
#305 = DIRECTION( '', ( 0.000000000000000, 0.000000000000000, -1.00000000000000 ) );
#306 = DIRECTION( '', ( -1.00000000000000, 1.47801551764840E-016, 0.000000000000000 ) );
#307 = DIRECTION( '', ( 0.000000000000000, 0.000000000000000, -1.00000000000000 ) );
#308 = DIRECTION( '', ( 1.00000000000000, -6.22322323220379E-017, 0.000000000000000 ) );
#309 = DIRECTION( '', ( 0.000000000000000, 0.000000000000000, -1.00000000000000 ) );
#310 = DIRECTION( '', ( 1.00000000000000, -6.22322323220379E-017, 0.000000000000000 ) );
#311 = DIRECTION( '', ( 0.000000000000000, 0.000000000000000, -1.00000000000000 ) );
#312 = CARTESIAN_POINT( '', ( 162.000000000000, 4.50000000000008, 96.0000000000000 ) );
#313 = DIRECTION( '', ( 0.000000000000000, 0.000000000000000, -1.00000000000000 ) );
#314 = DIRECTION( '', ( 0.000000000000000, -1.00000000000000, 0.000000000000000 ) );
#315 = CARTESIAN_POINT( '', ( -162.000000000000, 4.50000000000000, 96.0000000000000 ) );
#316 = DIRECTION( '', ( 0.000000000000000, 0.000000000000000, -1.00000000000000 ) );
#317 = DIRECTION( '', ( 0.000000000000000, -1.00000000000000, 0.000000000000000 ) );
#318 = DIRECTION( '', ( 6.45478502689045E-016, -1.00000000000000, 0.000000000000000 ) );
#319 = DIRECTION( '', ( 0.000000000000000, 1.00000000000000, 0.000000000000000 ) );
#320 = DIRECTION( '', ( 6.45478502689045E-016, -1.00000000000000, 0.000000000000000 ) );
#321 = CARTESIAN_POINT( '', ( 162.000000000000, 4.50000000000008, 0.000000000000000 ) );
#322 = DIRECTION( '', ( 0.000000000000000, 0.000000000000000, -1.00000000000000 ) );
#323 = DIRECTION( '', ( -1.00000000000000, 0.000000000000000, 0.000000000000000 ) );
#324 = CARTESIAN_POINT( '', ( -162.000000000000, 4.50000000000000, 0.000000000000000 ) );
#325 = DIRECTION( '', ( 0.000000000000000, 0.000000000000000, -1.00000000000000 ) );
#326 = DIRECTION( '', ( -1.00000000000000, 0.000000000000000, 0.000000000000000 ) );
#327 = DIRECTION( '', ( 0.000000000000000, 1.00000000000000, 0.000000000000000 ) );
ENDSEC;
END-ISO-10303-21;
