ISO-10303-21;
HEADER;
FILE_DESCRIPTION( ( 'Unknown' ), '1' );
FILE_NAME( 'M:/Piezas_3D/Placas_Par/G1 y G2/OS_G1_296x696x116_.stp', 'Unknown', ( 'Unknown' ), ( 'Unknown' ), 'PSStep 16.0.42', 'Unknown', '  ' );
FILE_SCHEMA( ( 'AUTOMOTIVE_DESIGN { 1 0 10303 214 1 1 1 1 }' ) );
ENDSEC;
DATA;
#1 = MECHANICAL_DESIGN_GEOMETRIC_PRESENTATION_REPRESENTATION( ' ', ( #10, #11, #12, #13, #14, #15, #16, #17 ), #6 );
#2 = PRODUCT_DEFINITION_CONTEXT( '', #18, 'design' );
#3 = APPLICATION_PROTOCOL_DEFINITION( 'international standard', 'automotive_design', 2001, #18 );
#4 = PRODUCT_CATEGORY_RELATIONSHIP( 'NONE', 'NONE', #19, #20 );
#5 = SHAPE_DEFINITION_REPRESENTATION( #21, #22 );
#6 =  ( GEOMETRIC_REPRESENTATION_CONTEXT( 3 )GLOBAL_UNCERTAINTY_ASSIGNED_CONTEXT( ( #25 ) )GLOBAL_UNIT_ASSIGNED_CONTEXT( ( #27, #28, #29 ) )REPRESENTATION_CONTEXT( 'NONE', 'WORKSPACE' ) );
#10 = STYLED_ITEM( '', ( #31 ), #32 );
#11 = STYLED_ITEM( '', ( #33 ), #34 );
#12 = STYLED_ITEM( '', ( #35 ), #36 );
#13 = STYLED_ITEM( '', ( #37 ), #38 );
#14 = STYLED_ITEM( '', ( #39 ), #40 );
#15 = STYLED_ITEM( '', ( #41 ), #42 );
#16 = STYLED_ITEM( '', ( #43 ), #44 );
#17 = STYLED_ITEM( '', ( #45 ), #46 );
#18 = APPLICATION_CONTEXT( 'core data for automotive mechanical design processes' );
#19 = PRODUCT_CATEGORY( 'part', 'NONE' );
#20 = PRODUCT_RELATED_PRODUCT_CATEGORY( 'detail', ' ', ( #47 ) );
#21 = PRODUCT_DEFINITION_SHAPE( 'NONE', 'NONE', #48 );
#22 = ADVANCED_BREP_SHAPE_REPRESENTATION( '1', ( #49, #50 ), #6 );
#25 = UNCERTAINTY_MEASURE_WITH_UNIT( LENGTH_MEASURE( 0.00100000000000000 ), #27, '', '' );
#27 =  ( CONVERSION_BASED_UNIT( 'MILLIMETRE', #53 )LENGTH_UNIT(  )NAMED_UNIT( #56 ) );
#28 =  ( NAMED_UNIT( #58 )PLANE_ANGLE_UNIT(  )SI_UNIT( $, .RADIAN. ) );
#29 =  ( NAMED_UNIT( #58 )SI_UNIT( $, .STERADIAN. )SOLID_ANGLE_UNIT(  ) );
#31 = PRESENTATION_STYLE_ASSIGNMENT( ( #64 ) );
#32 = ADVANCED_FACE( '', ( #65 ), #66, .F. );
#33 = PRESENTATION_STYLE_ASSIGNMENT( ( #67 ) );
#34 = ADVANCED_FACE( '', ( #68 ), #69, .F. );
#35 = PRESENTATION_STYLE_ASSIGNMENT( ( #70 ) );
#36 = ADVANCED_FACE( '', ( #71 ), #72, .F. );
#37 = PRESENTATION_STYLE_ASSIGNMENT( ( #73 ) );
#38 = ADVANCED_FACE( '', ( #74 ), #75, .F. );
#39 = PRESENTATION_STYLE_ASSIGNMENT( ( #76 ) );
#40 = ADVANCED_FACE( '', ( #77, #78, #79 ), #80, .F. );
#41 = PRESENTATION_STYLE_ASSIGNMENT( ( #81 ) );
#42 = ADVANCED_FACE( '', ( #82, #83, #84 ), #85, .T. );
#43 = PRESENTATION_STYLE_ASSIGNMENT( ( #86 ) );
#44 = ADVANCED_FACE( '', ( #87, #88 ), #89, .F. );
#45 = PRESENTATION_STYLE_ASSIGNMENT( ( #90 ) );
#46 = ADVANCED_FACE( '', ( #91, #92 ), #93, .F. );
#47 = PRODUCT( '1', '1', 'PART-1-DESC', ( #94 ) );
#48 = PRODUCT_DEFINITION( 'NONE', 'NONE', #95, #2 );
#49 = MANIFOLD_SOLID_BREP( '1', #96 );
#50 = AXIS2_PLACEMENT_3D( '', #97, #98, #99 );
#53 = LENGTH_MEASURE_WITH_UNIT( LENGTH_MEASURE( 1.00000000000000 ), #100 );
#56 = DIMENSIONAL_EXPONENTS( 1.00000000000000, 0.000000000000000, 0.000000000000000, 0.000000000000000, 0.000000000000000, 0.000000000000000, 0.000000000000000 );
#58 = DIMENSIONAL_EXPONENTS( 0.000000000000000, 0.000000000000000, 0.000000000000000, 0.000000000000000, 0.000000000000000, 0.000000000000000, 0.000000000000000 );
#64 = SURFACE_STYLE_USAGE( .BOTH., #101 );
#65 = FACE_OUTER_BOUND( '', #102, .T. );
#66 = PLANE( '', #103 );
#67 = SURFACE_STYLE_USAGE( .BOTH., #104 );
#68 = FACE_OUTER_BOUND( '', #105, .T. );
#69 = PLANE( '', #106 );
#70 = SURFACE_STYLE_USAGE( .BOTH., #107 );
#71 = FACE_OUTER_BOUND( '', #108, .T. );
#72 = PLANE( '', #109 );
#73 = SURFACE_STYLE_USAGE( .BOTH., #110 );
#74 = FACE_OUTER_BOUND( '', #111, .T. );
#75 = PLANE( '', #112 );
#76 = SURFACE_STYLE_USAGE( .BOTH., #113 );
#77 = FACE_BOUND( '', #114, .T. );
#78 = FACE_BOUND( '', #115, .T. );
#79 = FACE_OUTER_BOUND( '', #116, .T. );
#80 = PLANE( '', #117 );
#81 = SURFACE_STYLE_USAGE( .BOTH., #118 );
#82 = FACE_BOUND( '', #119, .T. );
#83 = FACE_BOUND( '', #120, .T. );
#84 = FACE_OUTER_BOUND( '', #121, .T. );
#85 = PLANE( '', #122 );
#86 = SURFACE_STYLE_USAGE( .BOTH., #123 );
#87 = FACE_OUTER_BOUND( '', #124, .T. );
#88 = FACE_OUTER_BOUND( '', #125, .T. );
#89 = CYLINDRICAL_SURFACE( '', #126, 9.00000000000000 );
#90 = SURFACE_STYLE_USAGE( .BOTH., #127 );
#91 = FACE_OUTER_BOUND( '', #128, .T. );
#92 = FACE_OUTER_BOUND( '', #129, .T. );
#93 = CYLINDRICAL_SURFACE( '', #130, 9.00000000000000 );
#94 = PRODUCT_CONTEXT( '', #18, 'mechanical' );
#95 = PRODUCT_DEFINITION_FORMATION_WITH_SPECIFIED_SOURCE( ' ', 'NONE', #47, .NOT_KNOWN. );
#96 = CLOSED_SHELL( '', ( #46, #40, #36, #42, #38, #34, #32, #44 ) );
#97 = CARTESIAN_POINT( '', ( 0.000000000000000, 0.000000000000000, 0.000000000000000 ) );
#98 = DIRECTION( '', ( 0.000000000000000, 0.000000000000000, 1.00000000000000 ) );
#99 = DIRECTION( '', ( 1.00000000000000, 0.000000000000000, 0.000000000000000 ) );
#100 =  ( LENGTH_UNIT(  )NAMED_UNIT( #56 )SI_UNIT( .MILLI., .METRE. ) );
#101 = SURFACE_SIDE_STYLE( '', ( #132 ) );
#102 = EDGE_LOOP( '', ( #133, #134, #135, #136 ) );
#103 = AXIS2_PLACEMENT_3D( '', #137, #138, #139 );
#104 = SURFACE_SIDE_STYLE( '', ( #140 ) );
#105 = EDGE_LOOP( '', ( #141, #142, #143, #144 ) );
#106 = AXIS2_PLACEMENT_3D( '', #145, #146, #147 );
#107 = SURFACE_SIDE_STYLE( '', ( #148 ) );
#108 = EDGE_LOOP( '', ( #149, #150, #151, #152 ) );
#109 = AXIS2_PLACEMENT_3D( '', #153, #154, #155 );
#110 = SURFACE_SIDE_STYLE( '', ( #156 ) );
#111 = EDGE_LOOP( '', ( #157, #158, #159, #160 ) );
#112 = AXIS2_PLACEMENT_3D( '', #161, #162, #163 );
#113 = SURFACE_SIDE_STYLE( '', ( #164 ) );
#114 = EDGE_LOOP( '', ( #165 ) );
#115 = EDGE_LOOP( '', ( #166 ) );
#116 = EDGE_LOOP( '', ( #167, #168, #169, #170 ) );
#117 = AXIS2_PLACEMENT_3D( '', #171, #172, #173 );
#118 = SURFACE_SIDE_STYLE( '', ( #174 ) );
#119 = EDGE_LOOP( '', ( #175 ) );
#120 = EDGE_LOOP( '', ( #176 ) );
#121 = EDGE_LOOP( '', ( #177, #178, #179, #180 ) );
#122 = AXIS2_PLACEMENT_3D( '', #181, #182, #183 );
#123 = SURFACE_SIDE_STYLE( '', ( #184 ) );
#124 = EDGE_LOOP( '', ( #185 ) );
#125 = EDGE_LOOP( '', ( #186 ) );
#126 = AXIS2_PLACEMENT_3D( '', #187, #188, #189 );
#127 = SURFACE_SIDE_STYLE( '', ( #190 ) );
#128 = EDGE_LOOP( '', ( #191 ) );
#129 = EDGE_LOOP( '', ( #192 ) );
#130 = AXIS2_PLACEMENT_3D( '', #193, #194, #195 );
#132 = SURFACE_STYLE_FILL_AREA( #196 );
#133 = ORIENTED_EDGE( '', *, *, #197, .T. );
#134 = ORIENTED_EDGE( '', *, *, #198, .F. );
#135 = ORIENTED_EDGE( '', *, *, #199, .F. );
#136 = ORIENTED_EDGE( '', *, *, #200, .T. );
#137 = CARTESIAN_POINT( '', ( -348.000000000000, 31.0000000000000, 116.000000000000 ) );
#138 = DIRECTION( '', ( 1.00000000000000, 0.000000000000000, 0.000000000000000 ) );
#139 = DIRECTION( '', ( 0.000000000000000, 0.000000000000000, -1.00000000000000 ) );
#140 = SURFACE_STYLE_FILL_AREA( #201 );
#141 = ORIENTED_EDGE( '', *, *, #202, .T. );
#142 = ORIENTED_EDGE( '', *, *, #200, .F. );
#143 = ORIENTED_EDGE( '', *, *, #203, .F. );
#144 = ORIENTED_EDGE( '', *, *, #204, .T. );
#145 = CARTESIAN_POINT( '', ( 348.000000000000, 31.0000000000000, 116.000000000000 ) );
#146 = DIRECTION( '', ( -1.59514802388672E-016, -1.00000000000000, 0.000000000000000 ) );
#147 = DIRECTION( '', ( 1.00000000000000, -1.59514802388672E-016, 0.000000000000000 ) );
#148 = SURFACE_STYLE_FILL_AREA( #205 );
#149 = ORIENTED_EDGE( '', *, *, #206, .T. );
#150 = ORIENTED_EDGE( '', *, *, #204, .F. );
#151 = ORIENTED_EDGE( '', *, *, #207, .F. );
#152 = ORIENTED_EDGE( '', *, *, #208, .T. );
#153 = CARTESIAN_POINT( '', ( 348.000000000000, -31.0000000000000, 116.000000000000 ) );
#154 = DIRECTION( '', ( -1.00000000000000, 0.000000000000000, 0.000000000000000 ) );
#155 = DIRECTION( '', ( 0.000000000000000, 0.000000000000000, 1.00000000000000 ) );
#156 = SURFACE_STYLE_FILL_AREA( #209 );
#157 = ORIENTED_EDGE( '', *, *, #210, .T. );
#158 = ORIENTED_EDGE( '', *, *, #208, .F. );
#159 = ORIENTED_EDGE( '', *, *, #211, .F. );
#160 = ORIENTED_EDGE( '', *, *, #198, .T. );
#161 = CARTESIAN_POINT( '', ( -348.000000000000, -31.0000000000000, 116.000000000000 ) );
#162 = DIRECTION( '', ( 5.98180508957520E-017, 1.00000000000000, 0.000000000000000 ) );
#163 = DIRECTION( '', ( -1.00000000000000, 5.98180508957520E-017, 0.000000000000000 ) );
#164 = SURFACE_STYLE_FILL_AREA( #212 );
#165 = ORIENTED_EDGE( '', *, *, #213, .T. );
#166 = ORIENTED_EDGE( '', *, *, #214, .T. );
#167 = ORIENTED_EDGE( '', *, *, #202, .F. );
#168 = ORIENTED_EDGE( '', *, *, #206, .F. );
#169 = ORIENTED_EDGE( '', *, *, #210, .F. );
#170 = ORIENTED_EDGE( '', *, *, #197, .F. );
#171 = CARTESIAN_POINT( '', ( -348.000000000000, 31.0000000000000, 0.000000000000000 ) );
#172 = DIRECTION( '', ( 0.000000000000000, 0.000000000000000, 1.00000000000000 ) );
#173 = DIRECTION( '', ( 1.00000000000000, 0.000000000000000, 0.000000000000000 ) );
#174 = SURFACE_STYLE_FILL_AREA( #215 );
#175 = ORIENTED_EDGE( '', *, *, #216, .T. );
#176 = ORIENTED_EDGE( '', *, *, #217, .T. );
#177 = ORIENTED_EDGE( '', *, *, #203, .T. );
#178 = ORIENTED_EDGE( '', *, *, #199, .T. );
#179 = ORIENTED_EDGE( '', *, *, #211, .T. );
#180 = ORIENTED_EDGE( '', *, *, #207, .T. );
#181 = CARTESIAN_POINT( '', ( -348.000000000000, 31.0000000000000, 116.000000000000 ) );
#182 = DIRECTION( '', ( 0.000000000000000, 0.000000000000000, 1.00000000000000 ) );
#183 = DIRECTION( '', ( 1.00000000000000, 0.000000000000000, 0.000000000000000 ) );
#184 = SURFACE_STYLE_FILL_AREA( #218 );
#185 = ORIENTED_EDGE( '', *, *, #217, .F. );
#186 = ORIENTED_EDGE( '', *, *, #214, .F. );
#187 = CARTESIAN_POINT( '', ( -265.000000000000, 5.00000000000007, 116.000000000000 ) );
#188 = DIRECTION( '', ( -0.000000000000000, -0.000000000000000, 1.00000000000000 ) );
#189 = DIRECTION( '', ( 0.000000000000000, -1.00000000000000, 0.000000000000000 ) );
#190 = SURFACE_STYLE_FILL_AREA( #219 );
#191 = ORIENTED_EDGE( '', *, *, #216, .F. );
#192 = ORIENTED_EDGE( '', *, *, #213, .F. );
#193 = CARTESIAN_POINT( '', ( 265.000000000000, 5.00000000000013, 116.000000000000 ) );
#194 = DIRECTION( '', ( -0.000000000000000, -0.000000000000000, 1.00000000000000 ) );
#195 = DIRECTION( '', ( 0.000000000000000, -1.00000000000000, 0.000000000000000 ) );
#196 = FILL_AREA_STYLE( '', ( #220 ) );
#197 = EDGE_CURVE( '', #221, #222, #223, .T. );
#198 = EDGE_CURVE( '', #224, #222, #225, .T. );
#199 = EDGE_CURVE( '', #226, #224, #227, .T. );
#200 = EDGE_CURVE( '', #226, #221, #228, .T. );
#201 = FILL_AREA_STYLE( '', ( #229 ) );
#202 = EDGE_CURVE( '', #230, #221, #231, .T. );
#203 = EDGE_CURVE( '', #232, #226, #233, .T. );
#204 = EDGE_CURVE( '', #232, #230, #234, .T. );
#205 = FILL_AREA_STYLE( '', ( #235 ) );
#206 = EDGE_CURVE( '', #236, #230, #237, .T. );
#207 = EDGE_CURVE( '', #238, #232, #239, .T. );
#208 = EDGE_CURVE( '', #238, #236, #240, .T. );
#209 = FILL_AREA_STYLE( '', ( #241 ) );
#210 = EDGE_CURVE( '', #222, #236, #242, .T. );
#211 = EDGE_CURVE( '', #224, #238, #243, .T. );
#212 = FILL_AREA_STYLE( '', ( #244 ) );
#213 = EDGE_CURVE( '', #245, #245, #246, .T. );
#214 = EDGE_CURVE( '', #247, #247, #248, .T. );
#215 = FILL_AREA_STYLE( '', ( #249 ) );
#216 = EDGE_CURVE( '', #250, #250, #251, .T. );
#217 = EDGE_CURVE( '', #252, #252, #253, .T. );
#218 = FILL_AREA_STYLE( '', ( #254 ) );
#219 = FILL_AREA_STYLE( '', ( #255 ) );
#220 = FILL_AREA_STYLE_COLOUR( '', #256 );
#221 = VERTEX_POINT( '', #257 );
#222 = VERTEX_POINT( '', #258 );
#223 = LINE( '', #259, #260 );
#224 = VERTEX_POINT( '', #261 );
#225 = LINE( '', #262, #263 );
#226 = VERTEX_POINT( '', #264 );
#227 = LINE( '', #265, #266 );
#228 = LINE( '', #267, #268 );
#229 = FILL_AREA_STYLE_COLOUR( '', #269 );
#230 = VERTEX_POINT( '', #270 );
#231 = LINE( '', #271, #272 );
#232 = VERTEX_POINT( '', #273 );
#233 = LINE( '', #274, #275 );
#234 = LINE( '', #276, #277 );
#235 = FILL_AREA_STYLE_COLOUR( '', #278 );
#236 = VERTEX_POINT( '', #279 );
#237 = LINE( '', #280, #281 );
#238 = VERTEX_POINT( '', #282 );
#239 = LINE( '', #283, #284 );
#240 = LINE( '', #285, #286 );
#241 = FILL_AREA_STYLE_COLOUR( '', #287 );
#242 = LINE( '', #288, #289 );
#243 = LINE( '', #290, #291 );
#244 = FILL_AREA_STYLE_COLOUR( '', #292 );
#245 = VERTEX_POINT( '', #293 );
#246 = CIRCLE( '', #294, 9.00000000000000 );
#247 = VERTEX_POINT( '', #295 );
#248 = CIRCLE( '', #296, 9.00000000000000 );
#249 = FILL_AREA_STYLE_COLOUR( '', #297 );
#250 = VERTEX_POINT( '', #298 );
#251 = CIRCLE( '', #299, 9.00000000000000 );
#252 = VERTEX_POINT( '', #300 );
#253 = CIRCLE( '', #301, 9.00000000000000 );
#254 = FILL_AREA_STYLE_COLOUR( '', #302 );
#255 = FILL_AREA_STYLE_COLOUR( '', #303 );
#256 = COLOUR_RGB( '', 0.752941191196442, 0.752941191196442, 0.752941191196442 );
#257 = CARTESIAN_POINT( '', ( -348.000000000000, 31.0000000000000, 0.000000000000000 ) );
#258 = CARTESIAN_POINT( '', ( -348.000000000000, -31.0000000000000, 0.000000000000000 ) );
#259 = CARTESIAN_POINT( '', ( -348.000000000000, 31.0000000000000, 0.000000000000000 ) );
#260 = VECTOR( '', #304, 1000.00000000000 );
#261 = CARTESIAN_POINT( '', ( -348.000000000000, -31.0000000000000, 116.000000000000 ) );
#262 = CARTESIAN_POINT( '', ( -348.000000000000, -31.0000000000000, 116.000000000000 ) );
#263 = VECTOR( '', #305, 1000.00000000000 );
#264 = CARTESIAN_POINT( '', ( -348.000000000000, 31.0000000000000, 116.000000000000 ) );
#265 = CARTESIAN_POINT( '', ( -348.000000000000, 31.0000000000000, 116.000000000000 ) );
#266 = VECTOR( '', #306, 1000.00000000000 );
#267 = CARTESIAN_POINT( '', ( -348.000000000000, 31.0000000000000, 116.000000000000 ) );
#268 = VECTOR( '', #307, 1000.00000000000 );
#269 = COLOUR_RGB( '', 0.752941191196442, 0.752941191196442, 0.752941191196442 );
#270 = CARTESIAN_POINT( '', ( 348.000000000000, 31.0000000000000, 0.000000000000000 ) );
#271 = CARTESIAN_POINT( '', ( 348.000000000000, 31.0000000000000, 0.000000000000000 ) );
#272 = VECTOR( '', #308, 1000.00000000000 );
#273 = CARTESIAN_POINT( '', ( 348.000000000000, 31.0000000000000, 116.000000000000 ) );
#274 = CARTESIAN_POINT( '', ( 348.000000000000, 31.0000000000000, 116.000000000000 ) );
#275 = VECTOR( '', #309, 1000.00000000000 );
#276 = CARTESIAN_POINT( '', ( 348.000000000000, 31.0000000000000, 116.000000000000 ) );
#277 = VECTOR( '', #310, 1000.00000000000 );
#278 = COLOUR_RGB( '', 0.752941191196442, 0.752941191196442, 0.752941191196442 );
#279 = CARTESIAN_POINT( '', ( 348.000000000000, -31.0000000000000, 0.000000000000000 ) );
#280 = CARTESIAN_POINT( '', ( 348.000000000000, -31.0000000000000, 0.000000000000000 ) );
#281 = VECTOR( '', #311, 1000.00000000000 );
#282 = CARTESIAN_POINT( '', ( 348.000000000000, -31.0000000000000, 116.000000000000 ) );
#283 = CARTESIAN_POINT( '', ( 348.000000000000, -31.0000000000000, 116.000000000000 ) );
#284 = VECTOR( '', #312, 1000.00000000000 );
#285 = CARTESIAN_POINT( '', ( 348.000000000000, -31.0000000000000, 116.000000000000 ) );
#286 = VECTOR( '', #313, 1000.00000000000 );
#287 = COLOUR_RGB( '', 0.752941191196442, 0.752941191196442, 0.752941191196442 );
#288 = CARTESIAN_POINT( '', ( -348.000000000000, -31.0000000000000, 0.000000000000000 ) );
#289 = VECTOR( '', #314, 1000.00000000000 );
#290 = CARTESIAN_POINT( '', ( -348.000000000000, -31.0000000000000, 116.000000000000 ) );
#291 = VECTOR( '', #315, 1000.00000000000 );
#292 = COLOUR_RGB( '', 0.752941191196442, 0.752941191196442, 0.752941191196442 );
#293 = CARTESIAN_POINT( '', ( 274.000000000000, 5.00000000000013, 0.000000000000000 ) );
#294 = AXIS2_PLACEMENT_3D( '', #316, #317, #318 );
#295 = CARTESIAN_POINT( '', ( -256.000000000000, 5.00000000000007, 0.000000000000000 ) );
#296 = AXIS2_PLACEMENT_3D( '', #319, #320, #321 );
#297 = COLOUR_RGB( '', 0.752941191196442, 0.752941191196442, 0.752941191196442 );
#298 = CARTESIAN_POINT( '', ( 265.000000000000, -3.99999999999987, 116.000000000000 ) );
#299 = AXIS2_PLACEMENT_3D( '', #322, #323, #324 );
#300 = CARTESIAN_POINT( '', ( -265.000000000000, -3.99999999999993, 116.000000000000 ) );
#301 = AXIS2_PLACEMENT_3D( '', #325, #326, #327 );
#302 = COLOUR_RGB( '', 0.752941191196442, 0.752941191196442, 0.752941191196442 );
#303 = COLOUR_RGB( '', 0.752941191196442, 0.752941191196442, 0.752941191196442 );
#304 = DIRECTION( '', ( 0.000000000000000, -1.00000000000000, 0.000000000000000 ) );
#305 = DIRECTION( '', ( 0.000000000000000, 0.000000000000000, -1.00000000000000 ) );
#306 = DIRECTION( '', ( 0.000000000000000, -1.00000000000000, 0.000000000000000 ) );
#307 = DIRECTION( '', ( 0.000000000000000, 0.000000000000000, -1.00000000000000 ) );
#308 = DIRECTION( '', ( -1.00000000000000, 1.59514802388672E-016, 0.000000000000000 ) );
#309 = DIRECTION( '', ( -1.00000000000000, 1.59514802388672E-016, 0.000000000000000 ) );
#310 = DIRECTION( '', ( 0.000000000000000, 0.000000000000000, -1.00000000000000 ) );
#311 = DIRECTION( '', ( 0.000000000000000, 1.00000000000000, 0.000000000000000 ) );
#312 = DIRECTION( '', ( 0.000000000000000, 1.00000000000000, 0.000000000000000 ) );
#313 = DIRECTION( '', ( 0.000000000000000, 0.000000000000000, -1.00000000000000 ) );
#314 = DIRECTION( '', ( 1.00000000000000, -5.98180508957520E-017, 0.000000000000000 ) );
#315 = DIRECTION( '', ( 1.00000000000000, -5.98180508957520E-017, 0.000000000000000 ) );
#316 = CARTESIAN_POINT( '', ( 265.000000000000, 5.00000000000013, 0.000000000000000 ) );
#317 = DIRECTION( '', ( 0.000000000000000, 0.000000000000000, 1.00000000000000 ) );
#318 = DIRECTION( '', ( 1.00000000000000, 0.000000000000000, 0.000000000000000 ) );
#319 = CARTESIAN_POINT( '', ( -265.000000000000, 5.00000000000007, 0.000000000000000 ) );
#320 = DIRECTION( '', ( 0.000000000000000, 0.000000000000000, 1.00000000000000 ) );
#321 = DIRECTION( '', ( 1.00000000000000, 0.000000000000000, 0.000000000000000 ) );
#322 = CARTESIAN_POINT( '', ( 265.000000000000, 5.00000000000013, 116.000000000000 ) );
#323 = DIRECTION( '', ( 0.000000000000000, 0.000000000000000, -1.00000000000000 ) );
#324 = DIRECTION( '', ( 0.000000000000000, -1.00000000000000, 0.000000000000000 ) );
#325 = CARTESIAN_POINT( '', ( -265.000000000000, 5.00000000000007, 116.000000000000 ) );
#326 = DIRECTION( '', ( 0.000000000000000, 0.000000000000000, -1.00000000000000 ) );
#327 = DIRECTION( '', ( 0.000000000000000, -1.00000000000000, 0.000000000000000 ) );
ENDSEC;
END-ISO-10303-21;
