ISO-10303-21;
HEADER;
FILE_DESCRIPTION( ( 'Unknown' ), '1' );
FILE_NAME( 'M:/Piezas_3D/Placas_Par/G1 y G2/OS_G1_346x696x116_.stp', 'Unknown', ( 'Unknown' ), ( 'Unknown' ), 'PSStep 16.0.42', 'Unknown', '  ' );
FILE_SCHEMA( ( 'AUTOMOTIVE_DESIGN { 1 0 10303 214 1 1 1 1 }' ) );
ENDSEC;
DATA;
#1 = MECHANICAL_DESIGN_GEOMETRIC_PRESENTATION_REPRESENTATION( ' ', ( #10, #11, #12, #13, #14, #15, #16, #17 ), #6 );
#2 = PRODUCT_DEFINITION_CONTEXT( '', #18, 'design' );
#3 = APPLICATION_PROTOCOL_DEFINITION( 'international standard', 'automotive_design', 2001, #18 );
#4 = PRODUCT_CATEGORY_RELATIONSHIP( 'NONE', 'NONE', #19, #20 );
#5 = SHAPE_DEFINITION_REPRESENTATION( #21, #22 );
#6 =  ( GEOMETRIC_REPRESENTATION_CONTEXT( 3 )GLOBAL_UNCERTAINTY_ASSIGNED_CONTEXT( ( #25 ) )GLOBAL_UNIT_ASSIGNED_CONTEXT( ( #27, #28, #29 ) )REPRESENTATION_CONTEXT( 'NONE', 'WORKSPACE' ) );
#10 = STYLED_ITEM( '', ( #31 ), #32 );
#11 = STYLED_ITEM( '', ( #33 ), #34 );
#12 = STYLED_ITEM( '', ( #35 ), #36 );
#13 = STYLED_ITEM( '', ( #37 ), #38 );
#14 = STYLED_ITEM( '', ( #39 ), #40 );
#15 = STYLED_ITEM( '', ( #41 ), #42 );
#16 = STYLED_ITEM( '', ( #43 ), #44 );
#17 = STYLED_ITEM( '', ( #45 ), #46 );
#18 = APPLICATION_CONTEXT( 'core data for automotive mechanical design processes' );
#19 = PRODUCT_CATEGORY( 'part', 'NONE' );
#20 = PRODUCT_RELATED_PRODUCT_CATEGORY( 'detail', ' ', ( #47 ) );
#21 = PRODUCT_DEFINITION_SHAPE( 'NONE', 'NONE', #48 );
#22 = ADVANCED_BREP_SHAPE_REPRESENTATION( '1', ( #49, #50 ), #6 );
#25 = UNCERTAINTY_MEASURE_WITH_UNIT( LENGTH_MEASURE( 0.00100000000000000 ), #27, '', '' );
#27 =  ( CONVERSION_BASED_UNIT( 'MILLIMETRE', #53 )LENGTH_UNIT(  )NAMED_UNIT( #56 ) );
#28 =  ( NAMED_UNIT( #58 )PLANE_ANGLE_UNIT(  )SI_UNIT( $, .RADIAN. ) );
#29 =  ( NAMED_UNIT( #58 )SI_UNIT( $, .STERADIAN. )SOLID_ANGLE_UNIT(  ) );
#31 = PRESENTATION_STYLE_ASSIGNMENT( ( #64 ) );
#32 = ADVANCED_FACE( '', ( #65, #66 ), #67, .F. );
#33 = PRESENTATION_STYLE_ASSIGNMENT( ( #68 ) );
#34 = ADVANCED_FACE( '', ( #69 ), #70, .F. );
#35 = PRESENTATION_STYLE_ASSIGNMENT( ( #71 ) );
#36 = ADVANCED_FACE( '', ( #72, #73, #74 ), #75, .F. );
#37 = PRESENTATION_STYLE_ASSIGNMENT( ( #76 ) );
#38 = ADVANCED_FACE( '', ( #77, #78, #79 ), #80, .T. );
#39 = PRESENTATION_STYLE_ASSIGNMENT( ( #81 ) );
#40 = ADVANCED_FACE( '', ( #82 ), #83, .F. );
#41 = PRESENTATION_STYLE_ASSIGNMENT( ( #84 ) );
#42 = ADVANCED_FACE( '', ( #85 ), #86, .F. );
#43 = PRESENTATION_STYLE_ASSIGNMENT( ( #87 ) );
#44 = ADVANCED_FACE( '', ( #88, #89 ), #90, .F. );
#45 = PRESENTATION_STYLE_ASSIGNMENT( ( #91 ) );
#46 = ADVANCED_FACE( '', ( #92 ), #93, .F. );
#47 = PRODUCT( '1', '1', 'PART-1-DESC', ( #94 ) );
#48 = PRODUCT_DEFINITION( 'NONE', 'NONE', #95, #2 );
#49 = MANIFOLD_SOLID_BREP( '1', #96 );
#50 = AXIS2_PLACEMENT_3D( '', #97, #98, #99 );
#53 = LENGTH_MEASURE_WITH_UNIT( LENGTH_MEASURE( 1.00000000000000 ), #100 );
#56 = DIMENSIONAL_EXPONENTS( 1.00000000000000, 0.000000000000000, 0.000000000000000, 0.000000000000000, 0.000000000000000, 0.000000000000000, 0.000000000000000 );
#58 = DIMENSIONAL_EXPONENTS( 0.000000000000000, 0.000000000000000, 0.000000000000000, 0.000000000000000, 0.000000000000000, 0.000000000000000, 0.000000000000000 );
#64 = SURFACE_STYLE_USAGE( .BOTH., #101 );
#65 = FACE_OUTER_BOUND( '', #102, .T. );
#66 = FACE_OUTER_BOUND( '', #103, .T. );
#67 = CYLINDRICAL_SURFACE( '', #104, 9.00000000000000 );
#68 = SURFACE_STYLE_USAGE( .BOTH., #105 );
#69 = FACE_OUTER_BOUND( '', #106, .T. );
#70 = PLANE( '', #107 );
#71 = SURFACE_STYLE_USAGE( .BOTH., #108 );
#72 = FACE_BOUND( '', #109, .T. );
#73 = FACE_BOUND( '', #110, .T. );
#74 = FACE_OUTER_BOUND( '', #111, .T. );
#75 = PLANE( '', #112 );
#76 = SURFACE_STYLE_USAGE( .BOTH., #113 );
#77 = FACE_BOUND( '', #114, .T. );
#78 = FACE_BOUND( '', #115, .T. );
#79 = FACE_OUTER_BOUND( '', #116, .T. );
#80 = PLANE( '', #117 );
#81 = SURFACE_STYLE_USAGE( .BOTH., #118 );
#82 = FACE_OUTER_BOUND( '', #119, .T. );
#83 = PLANE( '', #120 );
#84 = SURFACE_STYLE_USAGE( .BOTH., #121 );
#85 = FACE_OUTER_BOUND( '', #122, .T. );
#86 = PLANE( '', #123 );
#87 = SURFACE_STYLE_USAGE( .BOTH., #124 );
#88 = FACE_OUTER_BOUND( '', #125, .T. );
#89 = FACE_OUTER_BOUND( '', #126, .T. );
#90 = CYLINDRICAL_SURFACE( '', #127, 9.00000000000000 );
#91 = SURFACE_STYLE_USAGE( .BOTH., #128 );
#92 = FACE_OUTER_BOUND( '', #129, .T. );
#93 = PLANE( '', #130 );
#94 = PRODUCT_CONTEXT( '', #18, 'mechanical' );
#95 = PRODUCT_DEFINITION_FORMATION_WITH_SPECIFIED_SOURCE( ' ', 'NONE', #47, .NOT_KNOWN. );
#96 = CLOSED_SHELL( '', ( #32, #36, #34, #38, #46, #40, #42, #44 ) );
#97 = CARTESIAN_POINT( '', ( 0.000000000000000, 0.000000000000000, 0.000000000000000 ) );
#98 = DIRECTION( '', ( 0.000000000000000, 0.000000000000000, 1.00000000000000 ) );
#99 = DIRECTION( '', ( 1.00000000000000, 0.000000000000000, 0.000000000000000 ) );
#100 =  ( LENGTH_UNIT(  )NAMED_UNIT( #56 )SI_UNIT( .MILLI., .METRE. ) );
#101 = SURFACE_SIDE_STYLE( '', ( #132 ) );
#102 = EDGE_LOOP( '', ( #133 ) );
#103 = EDGE_LOOP( '', ( #134 ) );
#104 = AXIS2_PLACEMENT_3D( '', #135, #136, #137 );
#105 = SURFACE_SIDE_STYLE( '', ( #138 ) );
#106 = EDGE_LOOP( '', ( #139, #140, #141, #142 ) );
#107 = AXIS2_PLACEMENT_3D( '', #143, #144, #145 );
#108 = SURFACE_SIDE_STYLE( '', ( #146 ) );
#109 = EDGE_LOOP( '', ( #147 ) );
#110 = EDGE_LOOP( '', ( #148 ) );
#111 = EDGE_LOOP( '', ( #149, #150, #151, #152 ) );
#112 = AXIS2_PLACEMENT_3D( '', #153, #154, #155 );
#113 = SURFACE_SIDE_STYLE( '', ( #156 ) );
#114 = EDGE_LOOP( '', ( #157 ) );
#115 = EDGE_LOOP( '', ( #158 ) );
#116 = EDGE_LOOP( '', ( #159, #160, #161, #162 ) );
#117 = AXIS2_PLACEMENT_3D( '', #163, #164, #165 );
#118 = SURFACE_SIDE_STYLE( '', ( #166 ) );
#119 = EDGE_LOOP( '', ( #167, #168, #169, #170 ) );
#120 = AXIS2_PLACEMENT_3D( '', #171, #172, #173 );
#121 = SURFACE_SIDE_STYLE( '', ( #174 ) );
#122 = EDGE_LOOP( '', ( #175, #176, #177, #178 ) );
#123 = AXIS2_PLACEMENT_3D( '', #179, #180, #181 );
#124 = SURFACE_SIDE_STYLE( '', ( #182 ) );
#125 = EDGE_LOOP( '', ( #183 ) );
#126 = EDGE_LOOP( '', ( #184 ) );
#127 = AXIS2_PLACEMENT_3D( '', #185, #186, #187 );
#128 = SURFACE_SIDE_STYLE( '', ( #188 ) );
#129 = EDGE_LOOP( '', ( #189, #190, #191, #192 ) );
#130 = AXIS2_PLACEMENT_3D( '', #193, #194, #195 );
#132 = SURFACE_STYLE_FILL_AREA( #196 );
#133 = ORIENTED_EDGE( '', *, *, #197, .F. );
#134 = ORIENTED_EDGE( '', *, *, #198, .F. );
#135 = CARTESIAN_POINT( '', ( 265.000000000000, 5.00000000000007, 116.000000000000 ) );
#136 = DIRECTION( '', ( -0.000000000000000, -0.000000000000000, 1.00000000000000 ) );
#137 = DIRECTION( '', ( 0.000000000000000, -1.00000000000000, 0.000000000000000 ) );
#138 = SURFACE_STYLE_FILL_AREA( #199 );
#139 = ORIENTED_EDGE( '', *, *, #200, .T. );
#140 = ORIENTED_EDGE( '', *, *, #201, .F. );
#141 = ORIENTED_EDGE( '', *, *, #202, .F. );
#142 = ORIENTED_EDGE( '', *, *, #203, .T. );
#143 = CARTESIAN_POINT( '', ( 348.000000000000, -31.0000000000000, 116.000000000000 ) );
#144 = DIRECTION( '', ( -1.00000000000000, 0.000000000000000, 0.000000000000000 ) );
#145 = DIRECTION( '', ( 0.000000000000000, 0.000000000000000, 1.00000000000000 ) );
#146 = SURFACE_STYLE_FILL_AREA( #204 );
#147 = ORIENTED_EDGE( '', *, *, #198, .T. );
#148 = ORIENTED_EDGE( '', *, *, #205, .T. );
#149 = ORIENTED_EDGE( '', *, *, #206, .F. );
#150 = ORIENTED_EDGE( '', *, *, #200, .F. );
#151 = ORIENTED_EDGE( '', *, *, #207, .F. );
#152 = ORIENTED_EDGE( '', *, *, #208, .F. );
#153 = CARTESIAN_POINT( '', ( -348.000000000000, 31.0000000000000, 0.000000000000000 ) );
#154 = DIRECTION( '', ( 0.000000000000000, 0.000000000000000, 1.00000000000000 ) );
#155 = DIRECTION( '', ( 1.00000000000000, 0.000000000000000, 0.000000000000000 ) );
#156 = SURFACE_STYLE_FILL_AREA( #209 );
#157 = ORIENTED_EDGE( '', *, *, #197, .T. );
#158 = ORIENTED_EDGE( '', *, *, #210, .T. );
#159 = ORIENTED_EDGE( '', *, *, #211, .T. );
#160 = ORIENTED_EDGE( '', *, *, #212, .T. );
#161 = ORIENTED_EDGE( '', *, *, #213, .T. );
#162 = ORIENTED_EDGE( '', *, *, #202, .T. );
#163 = CARTESIAN_POINT( '', ( -348.000000000000, 31.0000000000000, 116.000000000000 ) );
#164 = DIRECTION( '', ( 0.000000000000000, 0.000000000000000, 1.00000000000000 ) );
#165 = DIRECTION( '', ( 1.00000000000000, 0.000000000000000, 0.000000000000000 ) );
#166 = SURFACE_STYLE_FILL_AREA( #214 );
#167 = ORIENTED_EDGE( '', *, *, #206, .T. );
#168 = ORIENTED_EDGE( '', *, *, #215, .F. );
#169 = ORIENTED_EDGE( '', *, *, #211, .F. );
#170 = ORIENTED_EDGE( '', *, *, #201, .T. );
#171 = CARTESIAN_POINT( '', ( 348.000000000000, 31.0000000000000, 116.000000000000 ) );
#172 = DIRECTION( '', ( -2.99090254478760E-017, -1.00000000000000, 0.000000000000000 ) );
#173 = DIRECTION( '', ( 1.00000000000000, -2.99090254478760E-017, 0.000000000000000 ) );
#174 = SURFACE_STYLE_FILL_AREA( #216 );
#175 = ORIENTED_EDGE( '', *, *, #208, .T. );
#176 = ORIENTED_EDGE( '', *, *, #217, .F. );
#177 = ORIENTED_EDGE( '', *, *, #212, .F. );
#178 = ORIENTED_EDGE( '', *, *, #215, .T. );
#179 = CARTESIAN_POINT( '', ( -348.000000000000, 31.0000000000000, 116.000000000000 ) );
#180 = DIRECTION( '', ( 1.00000000000000, 0.000000000000000, 0.000000000000000 ) );
#181 = DIRECTION( '', ( 0.000000000000000, 0.000000000000000, -1.00000000000000 ) );
#182 = SURFACE_STYLE_FILL_AREA( #218 );
#183 = ORIENTED_EDGE( '', *, *, #210, .F. );
#184 = ORIENTED_EDGE( '', *, *, #205, .F. );
#185 = CARTESIAN_POINT( '', ( -265.000000000000, 5.00000000000000, 116.000000000000 ) );
#186 = DIRECTION( '', ( -0.000000000000000, -0.000000000000000, 1.00000000000000 ) );
#187 = DIRECTION( '', ( 0.000000000000000, -1.00000000000000, 0.000000000000000 ) );
#188 = SURFACE_STYLE_FILL_AREA( #219 );
#189 = ORIENTED_EDGE( '', *, *, #207, .T. );
#190 = ORIENTED_EDGE( '', *, *, #203, .F. );
#191 = ORIENTED_EDGE( '', *, *, #213, .F. );
#192 = ORIENTED_EDGE( '', *, *, #217, .T. );
#193 = CARTESIAN_POINT( '', ( -348.000000000000, -31.0000000000000, 116.000000000000 ) );
#194 = DIRECTION( '', ( 5.48332133211060E-017, 1.00000000000000, 0.000000000000000 ) );
#195 = DIRECTION( '', ( -1.00000000000000, 5.48332133211060E-017, 0.000000000000000 ) );
#196 = FILL_AREA_STYLE( '', ( #220 ) );
#197 = EDGE_CURVE( '', #221, #221, #222, .T. );
#198 = EDGE_CURVE( '', #223, #223, #224, .T. );
#199 = FILL_AREA_STYLE( '', ( #225 ) );
#200 = EDGE_CURVE( '', #226, #227, #228, .T. );
#201 = EDGE_CURVE( '', #229, #227, #230, .T. );
#202 = EDGE_CURVE( '', #231, #229, #232, .T. );
#203 = EDGE_CURVE( '', #231, #226, #233, .T. );
#204 = FILL_AREA_STYLE( '', ( #234 ) );
#205 = EDGE_CURVE( '', #235, #235, #236, .T. );
#206 = EDGE_CURVE( '', #227, #237, #238, .T. );
#207 = EDGE_CURVE( '', #239, #226, #240, .T. );
#208 = EDGE_CURVE( '', #237, #239, #241, .T. );
#209 = FILL_AREA_STYLE( '', ( #242 ) );
#210 = EDGE_CURVE( '', #243, #243, #244, .T. );
#211 = EDGE_CURVE( '', #229, #245, #246, .T. );
#212 = EDGE_CURVE( '', #245, #247, #248, .T. );
#213 = EDGE_CURVE( '', #247, #231, #249, .T. );
#214 = FILL_AREA_STYLE( '', ( #250 ) );
#215 = EDGE_CURVE( '', #245, #237, #251, .T. );
#216 = FILL_AREA_STYLE( '', ( #252 ) );
#217 = EDGE_CURVE( '', #247, #239, #253, .T. );
#218 = FILL_AREA_STYLE( '', ( #254 ) );
#219 = FILL_AREA_STYLE( '', ( #255 ) );
#220 = FILL_AREA_STYLE_COLOUR( '', #256 );
#221 = VERTEX_POINT( '', #257 );
#222 = CIRCLE( '', #258, 9.00000000000000 );
#223 = VERTEX_POINT( '', #259 );
#224 = CIRCLE( '', #260, 9.00000000000000 );
#225 = FILL_AREA_STYLE_COLOUR( '', #261 );
#226 = VERTEX_POINT( '', #262 );
#227 = VERTEX_POINT( '', #263 );
#228 = LINE( '', #264, #265 );
#229 = VERTEX_POINT( '', #266 );
#230 = LINE( '', #267, #268 );
#231 = VERTEX_POINT( '', #269 );
#232 = LINE( '', #270, #271 );
#233 = LINE( '', #272, #273 );
#234 = FILL_AREA_STYLE_COLOUR( '', #274 );
#235 = VERTEX_POINT( '', #275 );
#236 = CIRCLE( '', #276, 9.00000000000000 );
#237 = VERTEX_POINT( '', #277 );
#238 = LINE( '', #278, #279 );
#239 = VERTEX_POINT( '', #280 );
#240 = LINE( '', #281, #282 );
#241 = LINE( '', #283, #284 );
#242 = FILL_AREA_STYLE_COLOUR( '', #285 );
#243 = VERTEX_POINT( '', #286 );
#244 = CIRCLE( '', #287, 9.00000000000000 );
#245 = VERTEX_POINT( '', #288 );
#246 = LINE( '', #289, #290 );
#247 = VERTEX_POINT( '', #291 );
#248 = LINE( '', #292, #293 );
#249 = LINE( '', #294, #295 );
#250 = FILL_AREA_STYLE_COLOUR( '', #296 );
#251 = LINE( '', #297, #298 );
#252 = FILL_AREA_STYLE_COLOUR( '', #299 );
#253 = LINE( '', #300, #301 );
#254 = FILL_AREA_STYLE_COLOUR( '', #302 );
#255 = FILL_AREA_STYLE_COLOUR( '', #303 );
#256 = COLOUR_RGB( '', 0.752941191196442, 0.752941191196442, 0.752941191196442 );
#257 = CARTESIAN_POINT( '', ( 265.000000000000, -3.99999999999993, 116.000000000000 ) );
#258 = AXIS2_PLACEMENT_3D( '', #304, #305, #306 );
#259 = CARTESIAN_POINT( '', ( 274.000000000000, 5.00000000000007, 0.000000000000000 ) );
#260 = AXIS2_PLACEMENT_3D( '', #307, #308, #309 );
#261 = COLOUR_RGB( '', 0.752941191196442, 0.752941191196442, 0.752941191196442 );
#262 = CARTESIAN_POINT( '', ( 348.000000000000, -31.0000000000000, 0.000000000000000 ) );
#263 = CARTESIAN_POINT( '', ( 348.000000000000, 31.0000000000000, 0.000000000000000 ) );
#264 = CARTESIAN_POINT( '', ( 348.000000000000, -31.0000000000000, 0.000000000000000 ) );
#265 = VECTOR( '', #310, 1000.00000000000 );
#266 = CARTESIAN_POINT( '', ( 348.000000000000, 31.0000000000000, 116.000000000000 ) );
#267 = CARTESIAN_POINT( '', ( 348.000000000000, 31.0000000000000, 116.000000000000 ) );
#268 = VECTOR( '', #311, 1000.00000000000 );
#269 = CARTESIAN_POINT( '', ( 348.000000000000, -31.0000000000000, 116.000000000000 ) );
#270 = CARTESIAN_POINT( '', ( 348.000000000000, -31.0000000000000, 116.000000000000 ) );
#271 = VECTOR( '', #312, 1000.00000000000 );
#272 = CARTESIAN_POINT( '', ( 348.000000000000, -31.0000000000000, 116.000000000000 ) );
#273 = VECTOR( '', #313, 1000.00000000000 );
#274 = COLOUR_RGB( '', 0.752941191196442, 0.752941191196442, 0.752941191196442 );
#275 = CARTESIAN_POINT( '', ( -256.000000000000, 5.00000000000000, 0.000000000000000 ) );
#276 = AXIS2_PLACEMENT_3D( '', #314, #315, #316 );
#277 = CARTESIAN_POINT( '', ( -348.000000000000, 31.0000000000000, 0.000000000000000 ) );
#278 = CARTESIAN_POINT( '', ( 348.000000000000, 31.0000000000000, 0.000000000000000 ) );
#279 = VECTOR( '', #317, 1000.00000000000 );
#280 = CARTESIAN_POINT( '', ( -348.000000000000, -31.0000000000000, 0.000000000000000 ) );
#281 = CARTESIAN_POINT( '', ( -348.000000000000, -31.0000000000000, 0.000000000000000 ) );
#282 = VECTOR( '', #318, 1000.00000000000 );
#283 = CARTESIAN_POINT( '', ( -348.000000000000, 31.0000000000000, 0.000000000000000 ) );
#284 = VECTOR( '', #319, 1000.00000000000 );
#285 = COLOUR_RGB( '', 0.752941191196442, 0.752941191196442, 0.752941191196442 );
#286 = CARTESIAN_POINT( '', ( -265.000000000000, -4.00000000000000, 116.000000000000 ) );
#287 = AXIS2_PLACEMENT_3D( '', #320, #321, #322 );
#288 = CARTESIAN_POINT( '', ( -348.000000000000, 31.0000000000000, 116.000000000000 ) );
#289 = CARTESIAN_POINT( '', ( 348.000000000000, 31.0000000000000, 116.000000000000 ) );
#290 = VECTOR( '', #323, 1000.00000000000 );
#291 = CARTESIAN_POINT( '', ( -348.000000000000, -31.0000000000000, 116.000000000000 ) );
#292 = CARTESIAN_POINT( '', ( -348.000000000000, 31.0000000000000, 116.000000000000 ) );
#293 = VECTOR( '', #324, 1000.00000000000 );
#294 = CARTESIAN_POINT( '', ( -348.000000000000, -31.0000000000000, 116.000000000000 ) );
#295 = VECTOR( '', #325, 1000.00000000000 );
#296 = COLOUR_RGB( '', 0.752941191196442, 0.752941191196442, 0.752941191196442 );
#297 = CARTESIAN_POINT( '', ( -348.000000000000, 31.0000000000000, 116.000000000000 ) );
#298 = VECTOR( '', #326, 1000.00000000000 );
#299 = COLOUR_RGB( '', 0.752941191196442, 0.752941191196442, 0.752941191196442 );
#300 = CARTESIAN_POINT( '', ( -348.000000000000, -31.0000000000000, 116.000000000000 ) );
#301 = VECTOR( '', #327, 1000.00000000000 );
#302 = COLOUR_RGB( '', 0.752941191196442, 0.752941191196442, 0.752941191196442 );
#303 = COLOUR_RGB( '', 0.752941191196442, 0.752941191196442, 0.752941191196442 );
#304 = CARTESIAN_POINT( '', ( 265.000000000000, 5.00000000000007, 116.000000000000 ) );
#305 = DIRECTION( '', ( 0.000000000000000, 0.000000000000000, -1.00000000000000 ) );
#306 = DIRECTION( '', ( 0.000000000000000, -1.00000000000000, 0.000000000000000 ) );
#307 = CARTESIAN_POINT( '', ( 265.000000000000, 5.00000000000007, 0.000000000000000 ) );
#308 = DIRECTION( '', ( 0.000000000000000, 0.000000000000000, 1.00000000000000 ) );
#309 = DIRECTION( '', ( 1.00000000000000, 0.000000000000000, 0.000000000000000 ) );
#310 = DIRECTION( '', ( 0.000000000000000, 1.00000000000000, 0.000000000000000 ) );
#311 = DIRECTION( '', ( 0.000000000000000, 0.000000000000000, -1.00000000000000 ) );
#312 = DIRECTION( '', ( 0.000000000000000, 1.00000000000000, 0.000000000000000 ) );
#313 = DIRECTION( '', ( 0.000000000000000, 0.000000000000000, -1.00000000000000 ) );
#314 = CARTESIAN_POINT( '', ( -265.000000000000, 5.00000000000000, 0.000000000000000 ) );
#315 = DIRECTION( '', ( 0.000000000000000, 0.000000000000000, 1.00000000000000 ) );
#316 = DIRECTION( '', ( 1.00000000000000, 0.000000000000000, 0.000000000000000 ) );
#317 = DIRECTION( '', ( -1.00000000000000, 2.99090254478760E-017, 0.000000000000000 ) );
#318 = DIRECTION( '', ( 1.00000000000000, -5.48332133211060E-017, 0.000000000000000 ) );
#319 = DIRECTION( '', ( 0.000000000000000, -1.00000000000000, 0.000000000000000 ) );
#320 = CARTESIAN_POINT( '', ( -265.000000000000, 5.00000000000000, 116.000000000000 ) );
#321 = DIRECTION( '', ( 0.000000000000000, 0.000000000000000, -1.00000000000000 ) );
#322 = DIRECTION( '', ( 0.000000000000000, -1.00000000000000, 0.000000000000000 ) );
#323 = DIRECTION( '', ( -1.00000000000000, 2.99090254478760E-017, 0.000000000000000 ) );
#324 = DIRECTION( '', ( 0.000000000000000, -1.00000000000000, 0.000000000000000 ) );
#325 = DIRECTION( '', ( 1.00000000000000, -5.48332133211060E-017, 0.000000000000000 ) );
#326 = DIRECTION( '', ( 0.000000000000000, 0.000000000000000, -1.00000000000000 ) );
#327 = DIRECTION( '', ( 0.000000000000000, 0.000000000000000, -1.00000000000000 ) );
ENDSEC;
END-ISO-10303-21;
