ISO-10303-21;
HEADER;
FILE_DESCRIPTION( ( 'Unknown' ), '1' );
FILE_NAME( 'M:/Piezas_3D/Placas_Par/G1 y G2/OS_G1_396x546x096_.stp', 'Unknown', ( 'Unknown' ), ( 'Unknown' ), 'PSStep 16.0.42', 'Unknown', '  ' );
FILE_SCHEMA( ( 'AUTOMOTIVE_DESIGN { 1 0 10303 214 1 1 1 1 }' ) );
ENDSEC;
DATA;
#1 = MECHANICAL_DESIGN_GEOMETRIC_PRESENTATION_REPRESENTATION( ' ', ( #10, #11, #12, #13, #14, #15, #16, #17 ), #6 );
#2 = PRODUCT_DEFINITION_CONTEXT( '', #18, 'design' );
#3 = APPLICATION_PROTOCOL_DEFINITION( 'international standard', 'automotive_design', 2001, #18 );
#4 = PRODUCT_CATEGORY_RELATIONSHIP( 'NONE', 'NONE', #19, #20 );
#5 = SHAPE_DEFINITION_REPRESENTATION( #21, #22 );
#6 =  ( GEOMETRIC_REPRESENTATION_CONTEXT( 3 )GLOBAL_UNCERTAINTY_ASSIGNED_CONTEXT( ( #25 ) )GLOBAL_UNIT_ASSIGNED_CONTEXT( ( #27, #28, #29 ) )REPRESENTATION_CONTEXT( 'NONE', 'WORKSPACE' ) );
#10 = STYLED_ITEM( '', ( #31 ), #32 );
#11 = STYLED_ITEM( '', ( #33 ), #34 );
#12 = STYLED_ITEM( '', ( #35 ), #36 );
#13 = STYLED_ITEM( '', ( #37 ), #38 );
#14 = STYLED_ITEM( '', ( #39 ), #40 );
#15 = STYLED_ITEM( '', ( #41 ), #42 );
#16 = STYLED_ITEM( '', ( #43 ), #44 );
#17 = STYLED_ITEM( '', ( #45 ), #46 );
#18 = APPLICATION_CONTEXT( 'core data for automotive mechanical design processes' );
#19 = PRODUCT_CATEGORY( 'part', 'NONE' );
#20 = PRODUCT_RELATED_PRODUCT_CATEGORY( 'detail', ' ', ( #47 ) );
#21 = PRODUCT_DEFINITION_SHAPE( 'NONE', 'NONE', #48 );
#22 = ADVANCED_BREP_SHAPE_REPRESENTATION( '1', ( #49, #50 ), #6 );
#25 = UNCERTAINTY_MEASURE_WITH_UNIT( LENGTH_MEASURE( 0.00100000000000000 ), #27, '', '' );
#27 =  ( CONVERSION_BASED_UNIT( 'MILLIMETRE', #53 )LENGTH_UNIT(  )NAMED_UNIT( #56 ) );
#28 =  ( NAMED_UNIT( #58 )PLANE_ANGLE_UNIT(  )SI_UNIT( $, .RADIAN. ) );
#29 =  ( NAMED_UNIT( #58 )SI_UNIT( $, .STERADIAN. )SOLID_ANGLE_UNIT(  ) );
#31 = PRESENTATION_STYLE_ASSIGNMENT( ( #64 ) );
#32 = ADVANCED_FACE( '', ( #65 ), #66, .F. );
#33 = PRESENTATION_STYLE_ASSIGNMENT( ( #67 ) );
#34 = ADVANCED_FACE( '', ( #68, #69 ), #70, .F. );
#35 = PRESENTATION_STYLE_ASSIGNMENT( ( #71 ) );
#36 = ADVANCED_FACE( '', ( #72 ), #73, .F. );
#37 = PRESENTATION_STYLE_ASSIGNMENT( ( #74 ) );
#38 = ADVANCED_FACE( '', ( #75 ), #76, .F. );
#39 = PRESENTATION_STYLE_ASSIGNMENT( ( #77 ) );
#40 = ADVANCED_FACE( '', ( #78 ), #79, .F. );
#41 = PRESENTATION_STYLE_ASSIGNMENT( ( #80 ) );
#42 = ADVANCED_FACE( '', ( #81, #82, #83 ), #84, .F. );
#43 = PRESENTATION_STYLE_ASSIGNMENT( ( #85 ) );
#44 = ADVANCED_FACE( '', ( #86, #87 ), #88, .F. );
#45 = PRESENTATION_STYLE_ASSIGNMENT( ( #89 ) );
#46 = ADVANCED_FACE( '', ( #90, #91, #92 ), #93, .T. );
#47 = PRODUCT( '1', '1', 'PART-1-DESC', ( #94 ) );
#48 = PRODUCT_DEFINITION( 'NONE', 'NONE', #95, #2 );
#49 = MANIFOLD_SOLID_BREP( '1', #96 );
#50 = AXIS2_PLACEMENT_3D( '', #97, #98, #99 );
#53 = LENGTH_MEASURE_WITH_UNIT( LENGTH_MEASURE( 1.00000000000000 ), #100 );
#56 = DIMENSIONAL_EXPONENTS( 1.00000000000000, 0.000000000000000, 0.000000000000000, 0.000000000000000, 0.000000000000000, 0.000000000000000, 0.000000000000000 );
#58 = DIMENSIONAL_EXPONENTS( 0.000000000000000, 0.000000000000000, 0.000000000000000, 0.000000000000000, 0.000000000000000, 0.000000000000000, 0.000000000000000 );
#64 = SURFACE_STYLE_USAGE( .BOTH., #101 );
#65 = FACE_OUTER_BOUND( '', #102, .T. );
#66 = PLANE( '', #103 );
#67 = SURFACE_STYLE_USAGE( .BOTH., #104 );
#68 = FACE_OUTER_BOUND( '', #105, .T. );
#69 = FACE_OUTER_BOUND( '', #106, .T. );
#70 = CYLINDRICAL_SURFACE( '', #107, 9.00000000000000 );
#71 = SURFACE_STYLE_USAGE( .BOTH., #108 );
#72 = FACE_OUTER_BOUND( '', #109, .T. );
#73 = PLANE( '', #110 );
#74 = SURFACE_STYLE_USAGE( .BOTH., #111 );
#75 = FACE_OUTER_BOUND( '', #112, .T. );
#76 = PLANE( '', #113 );
#77 = SURFACE_STYLE_USAGE( .BOTH., #114 );
#78 = FACE_OUTER_BOUND( '', #115, .T. );
#79 = PLANE( '', #116 );
#80 = SURFACE_STYLE_USAGE( .BOTH., #117 );
#81 = FACE_BOUND( '', #118, .T. );
#82 = FACE_BOUND( '', #119, .T. );
#83 = FACE_OUTER_BOUND( '', #120, .T. );
#84 = PLANE( '', #121 );
#85 = SURFACE_STYLE_USAGE( .BOTH., #122 );
#86 = FACE_OUTER_BOUND( '', #123, .T. );
#87 = FACE_OUTER_BOUND( '', #124, .T. );
#88 = CYLINDRICAL_SURFACE( '', #125, 9.00000000000000 );
#89 = SURFACE_STYLE_USAGE( .BOTH., #126 );
#90 = FACE_BOUND( '', #127, .T. );
#91 = FACE_BOUND( '', #128, .T. );
#92 = FACE_OUTER_BOUND( '', #129, .T. );
#93 = PLANE( '', #130 );
#94 = PRODUCT_CONTEXT( '', #18, 'mechanical' );
#95 = PRODUCT_DEFINITION_FORMATION_WITH_SPECIFIED_SOURCE( ' ', 'NONE', #47, .NOT_KNOWN. );
#96 = CLOSED_SHELL( '', ( #44, #42, #38, #46, #40, #32, #36, #34 ) );
#97 = CARTESIAN_POINT( '', ( 0.000000000000000, 0.000000000000000, 0.000000000000000 ) );
#98 = DIRECTION( '', ( 0.000000000000000, 0.000000000000000, 1.00000000000000 ) );
#99 = DIRECTION( '', ( 1.00000000000000, 0.000000000000000, 0.000000000000000 ) );
#100 =  ( LENGTH_UNIT(  )NAMED_UNIT( #56 )SI_UNIT( .MILLI., .METRE. ) );
#101 = SURFACE_SIDE_STYLE( '', ( #132 ) );
#102 = EDGE_LOOP( '', ( #133, #134, #135, #136 ) );
#103 = AXIS2_PLACEMENT_3D( '', #137, #138, #139 );
#104 = SURFACE_SIDE_STYLE( '', ( #140 ) );
#105 = EDGE_LOOP( '', ( #141 ) );
#106 = EDGE_LOOP( '', ( #142 ) );
#107 = AXIS2_PLACEMENT_3D( '', #143, #144, #145 );
#108 = SURFACE_SIDE_STYLE( '', ( #146 ) );
#109 = EDGE_LOOP( '', ( #147, #148, #149, #150 ) );
#110 = AXIS2_PLACEMENT_3D( '', #151, #152, #153 );
#111 = SURFACE_SIDE_STYLE( '', ( #154 ) );
#112 = EDGE_LOOP( '', ( #155, #156, #157, #158 ) );
#113 = AXIS2_PLACEMENT_3D( '', #159, #160, #161 );
#114 = SURFACE_SIDE_STYLE( '', ( #162 ) );
#115 = EDGE_LOOP( '', ( #163, #164, #165, #166 ) );
#116 = AXIS2_PLACEMENT_3D( '', #167, #168, #169 );
#117 = SURFACE_SIDE_STYLE( '', ( #170 ) );
#118 = EDGE_LOOP( '', ( #171 ) );
#119 = EDGE_LOOP( '', ( #172 ) );
#120 = EDGE_LOOP( '', ( #173, #174, #175, #176 ) );
#121 = AXIS2_PLACEMENT_3D( '', #177, #178, #179 );
#122 = SURFACE_SIDE_STYLE( '', ( #180 ) );
#123 = EDGE_LOOP( '', ( #181 ) );
#124 = EDGE_LOOP( '', ( #182 ) );
#125 = AXIS2_PLACEMENT_3D( '', #183, #184, #185 );
#126 = SURFACE_SIDE_STYLE( '', ( #186 ) );
#127 = EDGE_LOOP( '', ( #187 ) );
#128 = EDGE_LOOP( '', ( #188 ) );
#129 = EDGE_LOOP( '', ( #189, #190, #191, #192 ) );
#130 = AXIS2_PLACEMENT_3D( '', #193, #194, #195 );
#132 = SURFACE_STYLE_FILL_AREA( #196 );
#133 = ORIENTED_EDGE( '', *, *, #197, .T. );
#134 = ORIENTED_EDGE( '', *, *, #198, .F. );
#135 = ORIENTED_EDGE( '', *, *, #199, .F. );
#136 = ORIENTED_EDGE( '', *, *, #200, .T. );
#137 = CARTESIAN_POINT( '', ( 273.000000000000, 31.0000000000000, 96.0000000000000 ) );
#138 = DIRECTION( '', ( -2.54171937872059E-017, -1.00000000000000, 0.000000000000000 ) );
#139 = DIRECTION( '', ( 1.00000000000000, -2.54171937872059E-017, 0.000000000000000 ) );
#140 = SURFACE_STYLE_FILL_AREA( #201 );
#141 = ORIENTED_EDGE( '', *, *, #202, .F. );
#142 = ORIENTED_EDGE( '', *, *, #203, .F. );
#143 = CARTESIAN_POINT( '', ( -190.000000000000, 5.00000000000000, 96.0000000000000 ) );
#144 = DIRECTION( '', ( -0.000000000000000, -0.000000000000000, 1.00000000000000 ) );
#145 = DIRECTION( '', ( 0.000000000000000, -1.00000000000000, 0.000000000000000 ) );
#146 = SURFACE_STYLE_FILL_AREA( #204 );
#147 = ORIENTED_EDGE( '', *, *, #205, .T. );
#148 = ORIENTED_EDGE( '', *, *, #206, .F. );
#149 = ORIENTED_EDGE( '', *, *, #207, .F. );
#150 = ORIENTED_EDGE( '', *, *, #198, .T. );
#151 = CARTESIAN_POINT( '', ( -273.000000000000, 31.0000000000000, 96.0000000000000 ) );
#152 = DIRECTION( '', ( 1.00000000000000, 0.000000000000000, 0.000000000000000 ) );
#153 = DIRECTION( '', ( 0.000000000000000, 0.000000000000000, -1.00000000000000 ) );
#154 = SURFACE_STYLE_FILL_AREA( #208 );
#155 = ORIENTED_EDGE( '', *, *, #209, .T. );
#156 = ORIENTED_EDGE( '', *, *, #200, .F. );
#157 = ORIENTED_EDGE( '', *, *, #210, .F. );
#158 = ORIENTED_EDGE( '', *, *, #211, .T. );
#159 = CARTESIAN_POINT( '', ( 273.000000000000, -31.0000000000000, 96.0000000000000 ) );
#160 = DIRECTION( '', ( -1.00000000000000, 0.000000000000000, 0.000000000000000 ) );
#161 = DIRECTION( '', ( 0.000000000000000, 0.000000000000000, 1.00000000000000 ) );
#162 = SURFACE_STYLE_FILL_AREA( #212 );
#163 = ORIENTED_EDGE( '', *, *, #213, .T. );
#164 = ORIENTED_EDGE( '', *, *, #211, .F. );
#165 = ORIENTED_EDGE( '', *, *, #214, .F. );
#166 = ORIENTED_EDGE( '', *, *, #206, .T. );
#167 = CARTESIAN_POINT( '', ( -273.000000000000, -31.0000000000000, 96.0000000000000 ) );
#168 = DIRECTION( '', ( 5.08343875744119E-017, 1.00000000000000, 0.000000000000000 ) );
#169 = DIRECTION( '', ( -1.00000000000000, 5.08343875744119E-017, 0.000000000000000 ) );
#170 = SURFACE_STYLE_FILL_AREA( #215 );
#171 = ORIENTED_EDGE( '', *, *, #216, .T. );
#172 = ORIENTED_EDGE( '', *, *, #203, .T. );
#173 = ORIENTED_EDGE( '', *, *, #197, .F. );
#174 = ORIENTED_EDGE( '', *, *, #209, .F. );
#175 = ORIENTED_EDGE( '', *, *, #213, .F. );
#176 = ORIENTED_EDGE( '', *, *, #205, .F. );
#177 = CARTESIAN_POINT( '', ( -273.000000000000, 31.0000000000000, 0.000000000000000 ) );
#178 = DIRECTION( '', ( 0.000000000000000, 0.000000000000000, 1.00000000000000 ) );
#179 = DIRECTION( '', ( 1.00000000000000, 0.000000000000000, 0.000000000000000 ) );
#180 = SURFACE_STYLE_FILL_AREA( #217 );
#181 = ORIENTED_EDGE( '', *, *, #218, .F. );
#182 = ORIENTED_EDGE( '', *, *, #216, .F. );
#183 = CARTESIAN_POINT( '', ( 190.000000000000, 5.00000000000000, 96.0000000000000 ) );
#184 = DIRECTION( '', ( -0.000000000000000, -0.000000000000000, 1.00000000000000 ) );
#185 = DIRECTION( '', ( 0.000000000000000, -1.00000000000000, 0.000000000000000 ) );
#186 = SURFACE_STYLE_FILL_AREA( #219 );
#187 = ORIENTED_EDGE( '', *, *, #218, .T. );
#188 = ORIENTED_EDGE( '', *, *, #202, .T. );
#189 = ORIENTED_EDGE( '', *, *, #199, .T. );
#190 = ORIENTED_EDGE( '', *, *, #207, .T. );
#191 = ORIENTED_EDGE( '', *, *, #214, .T. );
#192 = ORIENTED_EDGE( '', *, *, #210, .T. );
#193 = CARTESIAN_POINT( '', ( -273.000000000000, 31.0000000000000, 96.0000000000000 ) );
#194 = DIRECTION( '', ( 0.000000000000000, 0.000000000000000, 1.00000000000000 ) );
#195 = DIRECTION( '', ( 1.00000000000000, 0.000000000000000, 0.000000000000000 ) );
#196 = FILL_AREA_STYLE( '', ( #220 ) );
#197 = EDGE_CURVE( '', #221, #222, #223, .T. );
#198 = EDGE_CURVE( '', #224, #222, #225, .T. );
#199 = EDGE_CURVE( '', #226, #224, #227, .T. );
#200 = EDGE_CURVE( '', #226, #221, #228, .T. );
#201 = FILL_AREA_STYLE( '', ( #229 ) );
#202 = EDGE_CURVE( '', #230, #230, #231, .T. );
#203 = EDGE_CURVE( '', #232, #232, #233, .T. );
#204 = FILL_AREA_STYLE( '', ( #234 ) );
#205 = EDGE_CURVE( '', #222, #235, #236, .T. );
#206 = EDGE_CURVE( '', #237, #235, #238, .T. );
#207 = EDGE_CURVE( '', #224, #237, #239, .T. );
#208 = FILL_AREA_STYLE( '', ( #240 ) );
#209 = EDGE_CURVE( '', #241, #221, #242, .T. );
#210 = EDGE_CURVE( '', #243, #226, #244, .T. );
#211 = EDGE_CURVE( '', #243, #241, #245, .T. );
#212 = FILL_AREA_STYLE( '', ( #246 ) );
#213 = EDGE_CURVE( '', #235, #241, #247, .T. );
#214 = EDGE_CURVE( '', #237, #243, #248, .T. );
#215 = FILL_AREA_STYLE( '', ( #249 ) );
#216 = EDGE_CURVE( '', #250, #250, #251, .T. );
#217 = FILL_AREA_STYLE( '', ( #252 ) );
#218 = EDGE_CURVE( '', #253, #253, #254, .T. );
#219 = FILL_AREA_STYLE( '', ( #255 ) );
#220 = FILL_AREA_STYLE_COLOUR( '', #256 );
#221 = VERTEX_POINT( '', #257 );
#222 = VERTEX_POINT( '', #258 );
#223 = LINE( '', #259, #260 );
#224 = VERTEX_POINT( '', #261 );
#225 = LINE( '', #262, #263 );
#226 = VERTEX_POINT( '', #264 );
#227 = LINE( '', #265, #266 );
#228 = LINE( '', #267, #268 );
#229 = FILL_AREA_STYLE_COLOUR( '', #269 );
#230 = VERTEX_POINT( '', #270 );
#231 = CIRCLE( '', #271, 9.00000000000000 );
#232 = VERTEX_POINT( '', #272 );
#233 = CIRCLE( '', #273, 9.00000000000000 );
#234 = FILL_AREA_STYLE_COLOUR( '', #274 );
#235 = VERTEX_POINT( '', #275 );
#236 = LINE( '', #276, #277 );
#237 = VERTEX_POINT( '', #278 );
#238 = LINE( '', #279, #280 );
#239 = LINE( '', #281, #282 );
#240 = FILL_AREA_STYLE_COLOUR( '', #283 );
#241 = VERTEX_POINT( '', #284 );
#242 = LINE( '', #285, #286 );
#243 = VERTEX_POINT( '', #287 );
#244 = LINE( '', #288, #289 );
#245 = LINE( '', #290, #291 );
#246 = FILL_AREA_STYLE_COLOUR( '', #292 );
#247 = LINE( '', #293, #294 );
#248 = LINE( '', #295, #296 );
#249 = FILL_AREA_STYLE_COLOUR( '', #297 );
#250 = VERTEX_POINT( '', #298 );
#251 = CIRCLE( '', #299, 9.00000000000000 );
#252 = FILL_AREA_STYLE_COLOUR( '', #300 );
#253 = VERTEX_POINT( '', #301 );
#254 = CIRCLE( '', #302, 9.00000000000000 );
#255 = FILL_AREA_STYLE_COLOUR( '', #303 );
#256 = COLOUR_RGB( '', 0.752941191196442, 0.752941191196442, 0.752941191196442 );
#257 = CARTESIAN_POINT( '', ( 273.000000000000, 31.0000000000000, 0.000000000000000 ) );
#258 = CARTESIAN_POINT( '', ( -273.000000000000, 31.0000000000000, 0.000000000000000 ) );
#259 = CARTESIAN_POINT( '', ( 273.000000000000, 31.0000000000000, 0.000000000000000 ) );
#260 = VECTOR( '', #304, 1000.00000000000 );
#261 = CARTESIAN_POINT( '', ( -273.000000000000, 31.0000000000000, 96.0000000000000 ) );
#262 = CARTESIAN_POINT( '', ( -273.000000000000, 31.0000000000000, 96.0000000000000 ) );
#263 = VECTOR( '', #305, 1000.00000000000 );
#264 = CARTESIAN_POINT( '', ( 273.000000000000, 31.0000000000000, 96.0000000000000 ) );
#265 = CARTESIAN_POINT( '', ( 273.000000000000, 31.0000000000000, 96.0000000000000 ) );
#266 = VECTOR( '', #306, 1000.00000000000 );
#267 = CARTESIAN_POINT( '', ( 273.000000000000, 31.0000000000000, 96.0000000000000 ) );
#268 = VECTOR( '', #307, 1000.00000000000 );
#269 = COLOUR_RGB( '', 0.752941191196442, 0.752941191196442, 0.752941191196442 );
#270 = CARTESIAN_POINT( '', ( -190.000000000000, -4.00000000000000, 96.0000000000000 ) );
#271 = AXIS2_PLACEMENT_3D( '', #308, #309, #310 );
#272 = CARTESIAN_POINT( '', ( -181.000000000000, 5.00000000000000, 0.000000000000000 ) );
#273 = AXIS2_PLACEMENT_3D( '', #311, #312, #313 );
#274 = COLOUR_RGB( '', 0.752941191196442, 0.752941191196442, 0.752941191196442 );
#275 = CARTESIAN_POINT( '', ( -273.000000000000, -31.0000000000000, 0.000000000000000 ) );
#276 = CARTESIAN_POINT( '', ( -273.000000000000, 31.0000000000000, 0.000000000000000 ) );
#277 = VECTOR( '', #314, 1000.00000000000 );
#278 = CARTESIAN_POINT( '', ( -273.000000000000, -31.0000000000000, 96.0000000000000 ) );
#279 = CARTESIAN_POINT( '', ( -273.000000000000, -31.0000000000000, 96.0000000000000 ) );
#280 = VECTOR( '', #315, 1000.00000000000 );
#281 = CARTESIAN_POINT( '', ( -273.000000000000, 31.0000000000000, 96.0000000000000 ) );
#282 = VECTOR( '', #316, 1000.00000000000 );
#283 = COLOUR_RGB( '', 0.752941191196442, 0.752941191196442, 0.752941191196442 );
#284 = CARTESIAN_POINT( '', ( 273.000000000000, -31.0000000000000, 0.000000000000000 ) );
#285 = CARTESIAN_POINT( '', ( 273.000000000000, -31.0000000000000, 0.000000000000000 ) );
#286 = VECTOR( '', #317, 1000.00000000000 );
#287 = CARTESIAN_POINT( '', ( 273.000000000000, -31.0000000000000, 96.0000000000000 ) );
#288 = CARTESIAN_POINT( '', ( 273.000000000000, -31.0000000000000, 96.0000000000000 ) );
#289 = VECTOR( '', #318, 1000.00000000000 );
#290 = CARTESIAN_POINT( '', ( 273.000000000000, -31.0000000000000, 96.0000000000000 ) );
#291 = VECTOR( '', #319, 1000.00000000000 );
#292 = COLOUR_RGB( '', 0.752941191196442, 0.752941191196442, 0.752941191196442 );
#293 = CARTESIAN_POINT( '', ( -273.000000000000, -31.0000000000000, 0.000000000000000 ) );
#294 = VECTOR( '', #320, 1000.00000000000 );
#295 = CARTESIAN_POINT( '', ( -273.000000000000, -31.0000000000000, 96.0000000000000 ) );
#296 = VECTOR( '', #321, 1000.00000000000 );
#297 = COLOUR_RGB( '', 0.752941191196442, 0.752941191196442, 0.752941191196442 );
#298 = CARTESIAN_POINT( '', ( 199.000000000000, 5.00000000000000, 0.000000000000000 ) );
#299 = AXIS2_PLACEMENT_3D( '', #322, #323, #324 );
#300 = COLOUR_RGB( '', 0.752941191196442, 0.752941191196442, 0.752941191196442 );
#301 = CARTESIAN_POINT( '', ( 190.000000000000, -4.00000000000000, 96.0000000000000 ) );
#302 = AXIS2_PLACEMENT_3D( '', #325, #326, #327 );
#303 = COLOUR_RGB( '', 0.752941191196442, 0.752941191196442, 0.752941191196442 );
#304 = DIRECTION( '', ( -1.00000000000000, 2.54171937872059E-017, 0.000000000000000 ) );
#305 = DIRECTION( '', ( 0.000000000000000, 0.000000000000000, -1.00000000000000 ) );
#306 = DIRECTION( '', ( -1.00000000000000, 2.54171937872059E-017, 0.000000000000000 ) );
#307 = DIRECTION( '', ( 0.000000000000000, 0.000000000000000, -1.00000000000000 ) );
#308 = CARTESIAN_POINT( '', ( -190.000000000000, 5.00000000000000, 96.0000000000000 ) );
#309 = DIRECTION( '', ( 0.000000000000000, 0.000000000000000, -1.00000000000000 ) );
#310 = DIRECTION( '', ( 0.000000000000000, -1.00000000000000, 0.000000000000000 ) );
#311 = CARTESIAN_POINT( '', ( -190.000000000000, 5.00000000000000, 0.000000000000000 ) );
#312 = DIRECTION( '', ( 0.000000000000000, 0.000000000000000, 1.00000000000000 ) );
#313 = DIRECTION( '', ( 1.00000000000000, 0.000000000000000, 0.000000000000000 ) );
#314 = DIRECTION( '', ( 0.000000000000000, -1.00000000000000, 0.000000000000000 ) );
#315 = DIRECTION( '', ( 0.000000000000000, 0.000000000000000, -1.00000000000000 ) );
#316 = DIRECTION( '', ( 0.000000000000000, -1.00000000000000, 0.000000000000000 ) );
#317 = DIRECTION( '', ( 0.000000000000000, 1.00000000000000, 0.000000000000000 ) );
#318 = DIRECTION( '', ( 0.000000000000000, 1.00000000000000, 0.000000000000000 ) );
#319 = DIRECTION( '', ( 0.000000000000000, 0.000000000000000, -1.00000000000000 ) );
#320 = DIRECTION( '', ( 1.00000000000000, -5.08343875744119E-017, 0.000000000000000 ) );
#321 = DIRECTION( '', ( 1.00000000000000, -5.08343875744119E-017, 0.000000000000000 ) );
#322 = CARTESIAN_POINT( '', ( 190.000000000000, 5.00000000000000, 0.000000000000000 ) );
#323 = DIRECTION( '', ( 0.000000000000000, 0.000000000000000, 1.00000000000000 ) );
#324 = DIRECTION( '', ( 1.00000000000000, 0.000000000000000, 0.000000000000000 ) );
#325 = CARTESIAN_POINT( '', ( 190.000000000000, 5.00000000000000, 96.0000000000000 ) );
#326 = DIRECTION( '', ( 0.000000000000000, 0.000000000000000, -1.00000000000000 ) );
#327 = DIRECTION( '', ( 0.000000000000000, -1.00000000000000, 0.000000000000000 ) );
ENDSEC;
END-ISO-10303-21;
