ISO-10303-21;
HEADER;
FILE_DESCRIPTION( ( 'Unknown' ), '1' );
FILE_NAME( 'M:/Piezas_3D/Placas_Par/G1 y G2/OS_G1_396x796x096_.stp', 'Unknown', ( 'Unknown' ), ( 'Unknown' ), 'PSStep 16.0.42', 'Unknown', '  ' );
FILE_SCHEMA( ( 'AUTOMOTIVE_DESIGN { 1 0 10303 214 1 1 1 1 }' ) );
ENDSEC;
DATA;
#1 = MECHANICAL_DESIGN_GEOMETRIC_PRESENTATION_REPRESENTATION( ' ', ( #10, #11, #12, #13, #14, #15, #16, #17 ), #6 );
#2 = PRODUCT_DEFINITION_CONTEXT( '', #18, 'design' );
#3 = APPLICATION_PROTOCOL_DEFINITION( 'international standard', 'automotive_design', 2001, #18 );
#4 = PRODUCT_CATEGORY_RELATIONSHIP( 'NONE', 'NONE', #19, #20 );
#5 = SHAPE_DEFINITION_REPRESENTATION( #21, #22 );
#6 =  ( GEOMETRIC_REPRESENTATION_CONTEXT( 3 )GLOBAL_UNCERTAINTY_ASSIGNED_CONTEXT( ( #25 ) )GLOBAL_UNIT_ASSIGNED_CONTEXT( ( #27, #28, #29 ) )REPRESENTATION_CONTEXT( 'NONE', 'WORKSPACE' ) );
#10 = STYLED_ITEM( '', ( #31 ), #32 );
#11 = STYLED_ITEM( '', ( #33 ), #34 );
#12 = STYLED_ITEM( '', ( #35 ), #36 );
#13 = STYLED_ITEM( '', ( #37 ), #38 );
#14 = STYLED_ITEM( '', ( #39 ), #40 );
#15 = STYLED_ITEM( '', ( #41 ), #42 );
#16 = STYLED_ITEM( '', ( #43 ), #44 );
#17 = STYLED_ITEM( '', ( #45 ), #46 );
#18 = APPLICATION_CONTEXT( 'core data for automotive mechanical design processes' );
#19 = PRODUCT_CATEGORY( 'part', 'NONE' );
#20 = PRODUCT_RELATED_PRODUCT_CATEGORY( 'detail', ' ', ( #47 ) );
#21 = PRODUCT_DEFINITION_SHAPE( 'NONE', 'NONE', #48 );
#22 = ADVANCED_BREP_SHAPE_REPRESENTATION( '1', ( #49, #50 ), #6 );
#25 = UNCERTAINTY_MEASURE_WITH_UNIT( LENGTH_MEASURE( 0.00100000000000000 ), #27, '', '' );
#27 =  ( CONVERSION_BASED_UNIT( 'MILLIMETRE', #53 )LENGTH_UNIT(  )NAMED_UNIT( #56 ) );
#28 =  ( NAMED_UNIT( #58 )PLANE_ANGLE_UNIT(  )SI_UNIT( $, .RADIAN. ) );
#29 =  ( NAMED_UNIT( #58 )SI_UNIT( $, .STERADIAN. )SOLID_ANGLE_UNIT(  ) );
#31 = PRESENTATION_STYLE_ASSIGNMENT( ( #64 ) );
#32 = ADVANCED_FACE( '', ( #65, #66, #67 ), #68, .F. );
#33 = PRESENTATION_STYLE_ASSIGNMENT( ( #69 ) );
#34 = ADVANCED_FACE( '', ( #70 ), #71, .F. );
#35 = PRESENTATION_STYLE_ASSIGNMENT( ( #72 ) );
#36 = ADVANCED_FACE( '', ( #73 ), #74, .F. );
#37 = PRESENTATION_STYLE_ASSIGNMENT( ( #75 ) );
#38 = ADVANCED_FACE( '', ( #76 ), #77, .F. );
#39 = PRESENTATION_STYLE_ASSIGNMENT( ( #78 ) );
#40 = ADVANCED_FACE( '', ( #79, #80 ), #81, .F. );
#41 = PRESENTATION_STYLE_ASSIGNMENT( ( #82 ) );
#42 = ADVANCED_FACE( '', ( #83, #84 ), #85, .F. );
#43 = PRESENTATION_STYLE_ASSIGNMENT( ( #86 ) );
#44 = ADVANCED_FACE( '', ( #87 ), #88, .F. );
#45 = PRESENTATION_STYLE_ASSIGNMENT( ( #89 ) );
#46 = ADVANCED_FACE( '', ( #90, #91, #92 ), #93, .T. );
#47 = PRODUCT( '1', '1', 'PART-1-DESC', ( #94 ) );
#48 = PRODUCT_DEFINITION( 'NONE', 'NONE', #95, #2 );
#49 = MANIFOLD_SOLID_BREP( '1', #96 );
#50 = AXIS2_PLACEMENT_3D( '', #97, #98, #99 );
#53 = LENGTH_MEASURE_WITH_UNIT( LENGTH_MEASURE( 1.00000000000000 ), #100 );
#56 = DIMENSIONAL_EXPONENTS( 1.00000000000000, 0.000000000000000, 0.000000000000000, 0.000000000000000, 0.000000000000000, 0.000000000000000, 0.000000000000000 );
#58 = DIMENSIONAL_EXPONENTS( 0.000000000000000, 0.000000000000000, 0.000000000000000, 0.000000000000000, 0.000000000000000, 0.000000000000000, 0.000000000000000 );
#64 = SURFACE_STYLE_USAGE( .BOTH., #101 );
#65 = FACE_BOUND( '', #102, .T. );
#66 = FACE_BOUND( '', #103, .T. );
#67 = FACE_OUTER_BOUND( '', #104, .T. );
#68 = PLANE( '', #105 );
#69 = SURFACE_STYLE_USAGE( .BOTH., #106 );
#70 = FACE_OUTER_BOUND( '', #107, .T. );
#71 = PLANE( '', #108 );
#72 = SURFACE_STYLE_USAGE( .BOTH., #109 );
#73 = FACE_OUTER_BOUND( '', #110, .T. );
#74 = PLANE( '', #111 );
#75 = SURFACE_STYLE_USAGE( .BOTH., #112 );
#76 = FACE_OUTER_BOUND( '', #113, .T. );
#77 = PLANE( '', #114 );
#78 = SURFACE_STYLE_USAGE( .BOTH., #115 );
#79 = FACE_OUTER_BOUND( '', #116, .T. );
#80 = FACE_OUTER_BOUND( '', #117, .T. );
#81 = CYLINDRICAL_SURFACE( '', #118, 9.00000000000000 );
#82 = SURFACE_STYLE_USAGE( .BOTH., #119 );
#83 = FACE_OUTER_BOUND( '', #120, .T. );
#84 = FACE_OUTER_BOUND( '', #121, .T. );
#85 = CYLINDRICAL_SURFACE( '', #122, 9.00000000000000 );
#86 = SURFACE_STYLE_USAGE( .BOTH., #123 );
#87 = FACE_OUTER_BOUND( '', #124, .T. );
#88 = PLANE( '', #125 );
#89 = SURFACE_STYLE_USAGE( .BOTH., #126 );
#90 = FACE_BOUND( '', #127, .T. );
#91 = FACE_BOUND( '', #128, .T. );
#92 = FACE_OUTER_BOUND( '', #129, .T. );
#93 = PLANE( '', #130 );
#94 = PRODUCT_CONTEXT( '', #18, 'mechanical' );
#95 = PRODUCT_DEFINITION_FORMATION_WITH_SPECIFIED_SOURCE( ' ', 'NONE', #47, .NOT_KNOWN. );
#96 = CLOSED_SHELL( '', ( #40, #32, #44, #46, #34, #38, #36, #42 ) );
#97 = CARTESIAN_POINT( '', ( 0.000000000000000, 0.000000000000000, 0.000000000000000 ) );
#98 = DIRECTION( '', ( 0.000000000000000, 0.000000000000000, 1.00000000000000 ) );
#99 = DIRECTION( '', ( 1.00000000000000, 0.000000000000000, 0.000000000000000 ) );
#100 =  ( LENGTH_UNIT(  )NAMED_UNIT( #56 )SI_UNIT( .MILLI., .METRE. ) );
#101 = SURFACE_SIDE_STYLE( '', ( #132 ) );
#102 = EDGE_LOOP( '', ( #133 ) );
#103 = EDGE_LOOP( '', ( #134 ) );
#104 = EDGE_LOOP( '', ( #135, #136, #137, #138 ) );
#105 = AXIS2_PLACEMENT_3D( '', #139, #140, #141 );
#106 = SURFACE_SIDE_STYLE( '', ( #142 ) );
#107 = EDGE_LOOP( '', ( #143, #144, #145, #146 ) );
#108 = AXIS2_PLACEMENT_3D( '', #147, #148, #149 );
#109 = SURFACE_SIDE_STYLE( '', ( #150 ) );
#110 = EDGE_LOOP( '', ( #151, #152, #153, #154 ) );
#111 = AXIS2_PLACEMENT_3D( '', #155, #156, #157 );
#112 = SURFACE_SIDE_STYLE( '', ( #158 ) );
#113 = EDGE_LOOP( '', ( #159, #160, #161, #162 ) );
#114 = AXIS2_PLACEMENT_3D( '', #163, #164, #165 );
#115 = SURFACE_SIDE_STYLE( '', ( #166 ) );
#116 = EDGE_LOOP( '', ( #167 ) );
#117 = EDGE_LOOP( '', ( #168 ) );
#118 = AXIS2_PLACEMENT_3D( '', #169, #170, #171 );
#119 = SURFACE_SIDE_STYLE( '', ( #172 ) );
#120 = EDGE_LOOP( '', ( #173 ) );
#121 = EDGE_LOOP( '', ( #174 ) );
#122 = AXIS2_PLACEMENT_3D( '', #175, #176, #177 );
#123 = SURFACE_SIDE_STYLE( '', ( #178 ) );
#124 = EDGE_LOOP( '', ( #179, #180, #181, #182 ) );
#125 = AXIS2_PLACEMENT_3D( '', #183, #184, #185 );
#126 = SURFACE_SIDE_STYLE( '', ( #186 ) );
#127 = EDGE_LOOP( '', ( #187 ) );
#128 = EDGE_LOOP( '', ( #188 ) );
#129 = EDGE_LOOP( '', ( #189, #190, #191, #192 ) );
#130 = AXIS2_PLACEMENT_3D( '', #193, #194, #195 );
#132 = SURFACE_STYLE_FILL_AREA( #196 );
#133 = ORIENTED_EDGE( '', *, *, #197, .T. );
#134 = ORIENTED_EDGE( '', *, *, #198, .T. );
#135 = ORIENTED_EDGE( '', *, *, #199, .F. );
#136 = ORIENTED_EDGE( '', *, *, #200, .F. );
#137 = ORIENTED_EDGE( '', *, *, #201, .F. );
#138 = ORIENTED_EDGE( '', *, *, #202, .F. );
#139 = CARTESIAN_POINT( '', ( -398.000000000000, 31.0000000000000, 0.000000000000000 ) );
#140 = DIRECTION( '', ( 0.000000000000000, 0.000000000000000, 1.00000000000000 ) );
#141 = DIRECTION( '', ( 1.00000000000000, 0.000000000000000, 0.000000000000000 ) );
#142 = SURFACE_STYLE_FILL_AREA( #203 );
#143 = ORIENTED_EDGE( '', *, *, #201, .T. );
#144 = ORIENTED_EDGE( '', *, *, #204, .F. );
#145 = ORIENTED_EDGE( '', *, *, #205, .F. );
#146 = ORIENTED_EDGE( '', *, *, #206, .T. );
#147 = CARTESIAN_POINT( '', ( -398.000000000000, -31.0000000000000, 96.0000000000000 ) );
#148 = DIRECTION( '', ( 6.10204237780787E-017, 1.00000000000000, 0.000000000000000 ) );
#149 = DIRECTION( '', ( -1.00000000000000, 6.10204237780787E-017, 0.000000000000000 ) );
#150 = SURFACE_STYLE_FILL_AREA( #207 );
#151 = ORIENTED_EDGE( '', *, *, #202, .T. );
#152 = ORIENTED_EDGE( '', *, *, #206, .F. );
#153 = ORIENTED_EDGE( '', *, *, #208, .F. );
#154 = ORIENTED_EDGE( '', *, *, #209, .T. );
#155 = CARTESIAN_POINT( '', ( -398.000000000000, 31.0000000000000, 96.0000000000000 ) );
#156 = DIRECTION( '', ( 1.00000000000000, 0.000000000000000, 0.000000000000000 ) );
#157 = DIRECTION( '', ( 0.000000000000000, 0.000000000000000, -1.00000000000000 ) );
#158 = SURFACE_STYLE_FILL_AREA( #210 );
#159 = ORIENTED_EDGE( '', *, *, #199, .T. );
#160 = ORIENTED_EDGE( '', *, *, #209, .F. );
#161 = ORIENTED_EDGE( '', *, *, #211, .F. );
#162 = ORIENTED_EDGE( '', *, *, #212, .T. );
#163 = CARTESIAN_POINT( '', ( 398.000000000000, 31.0000000000000, 96.0000000000000 ) );
#164 = DIRECTION( '', ( -2.61516101906051E-017, -1.00000000000000, 0.000000000000000 ) );
#165 = DIRECTION( '', ( 1.00000000000000, -2.61516101906051E-017, 0.000000000000000 ) );
#166 = SURFACE_STYLE_FILL_AREA( #213 );
#167 = ORIENTED_EDGE( '', *, *, #214, .F. );
#168 = ORIENTED_EDGE( '', *, *, #197, .F. );
#169 = CARTESIAN_POINT( '', ( 315.000000000000, 5.00000000000008, 96.0000000000000 ) );
#170 = DIRECTION( '', ( -0.000000000000000, -0.000000000000000, 1.00000000000000 ) );
#171 = DIRECTION( '', ( 0.000000000000000, -1.00000000000000, 0.000000000000000 ) );
#172 = SURFACE_STYLE_FILL_AREA( #215 );
#173 = ORIENTED_EDGE( '', *, *, #216, .F. );
#174 = ORIENTED_EDGE( '', *, *, #198, .F. );
#175 = CARTESIAN_POINT( '', ( -315.000000000000, 5.00000000000000, 96.0000000000000 ) );
#176 = DIRECTION( '', ( -0.000000000000000, -0.000000000000000, 1.00000000000000 ) );
#177 = DIRECTION( '', ( 0.000000000000000, -1.00000000000000, 0.000000000000000 ) );
#178 = SURFACE_STYLE_FILL_AREA( #217 );
#179 = ORIENTED_EDGE( '', *, *, #200, .T. );
#180 = ORIENTED_EDGE( '', *, *, #212, .F. );
#181 = ORIENTED_EDGE( '', *, *, #218, .F. );
#182 = ORIENTED_EDGE( '', *, *, #204, .T. );
#183 = CARTESIAN_POINT( '', ( 398.000000000000, -31.0000000000000, 96.0000000000000 ) );
#184 = DIRECTION( '', ( -1.00000000000000, 0.000000000000000, 0.000000000000000 ) );
#185 = DIRECTION( '', ( 0.000000000000000, 0.000000000000000, 1.00000000000000 ) );
#186 = SURFACE_STYLE_FILL_AREA( #219 );
#187 = ORIENTED_EDGE( '', *, *, #214, .T. );
#188 = ORIENTED_EDGE( '', *, *, #216, .T. );
#189 = ORIENTED_EDGE( '', *, *, #211, .T. );
#190 = ORIENTED_EDGE( '', *, *, #208, .T. );
#191 = ORIENTED_EDGE( '', *, *, #205, .T. );
#192 = ORIENTED_EDGE( '', *, *, #218, .T. );
#193 = CARTESIAN_POINT( '', ( -398.000000000000, 31.0000000000000, 96.0000000000000 ) );
#194 = DIRECTION( '', ( 0.000000000000000, 0.000000000000000, 1.00000000000000 ) );
#195 = DIRECTION( '', ( 1.00000000000000, 0.000000000000000, 0.000000000000000 ) );
#196 = FILL_AREA_STYLE( '', ( #220 ) );
#197 = EDGE_CURVE( '', #221, #221, #222, .T. );
#198 = EDGE_CURVE( '', #223, #223, #224, .T. );
#199 = EDGE_CURVE( '', #225, #226, #227, .T. );
#200 = EDGE_CURVE( '', #228, #225, #229, .T. );
#201 = EDGE_CURVE( '', #230, #228, #231, .T. );
#202 = EDGE_CURVE( '', #226, #230, #232, .T. );
#203 = FILL_AREA_STYLE( '', ( #233 ) );
#204 = EDGE_CURVE( '', #234, #228, #235, .T. );
#205 = EDGE_CURVE( '', #236, #234, #237, .T. );
#206 = EDGE_CURVE( '', #236, #230, #238, .T. );
#207 = FILL_AREA_STYLE( '', ( #239 ) );
#208 = EDGE_CURVE( '', #240, #236, #241, .T. );
#209 = EDGE_CURVE( '', #240, #226, #242, .T. );
#210 = FILL_AREA_STYLE( '', ( #243 ) );
#211 = EDGE_CURVE( '', #244, #240, #245, .T. );
#212 = EDGE_CURVE( '', #244, #225, #246, .T. );
#213 = FILL_AREA_STYLE( '', ( #247 ) );
#214 = EDGE_CURVE( '', #248, #248, #249, .T. );
#215 = FILL_AREA_STYLE( '', ( #250 ) );
#216 = EDGE_CURVE( '', #251, #251, #252, .T. );
#217 = FILL_AREA_STYLE( '', ( #253 ) );
#218 = EDGE_CURVE( '', #234, #244, #254, .T. );
#219 = FILL_AREA_STYLE( '', ( #255 ) );
#220 = FILL_AREA_STYLE_COLOUR( '', #256 );
#221 = VERTEX_POINT( '', #257 );
#222 = CIRCLE( '', #258, 9.00000000000000 );
#223 = VERTEX_POINT( '', #259 );
#224 = CIRCLE( '', #260, 9.00000000000000 );
#225 = VERTEX_POINT( '', #261 );
#226 = VERTEX_POINT( '', #262 );
#227 = LINE( '', #263, #264 );
#228 = VERTEX_POINT( '', #265 );
#229 = LINE( '', #266, #267 );
#230 = VERTEX_POINT( '', #268 );
#231 = LINE( '', #269, #270 );
#232 = LINE( '', #271, #272 );
#233 = FILL_AREA_STYLE_COLOUR( '', #273 );
#234 = VERTEX_POINT( '', #274 );
#235 = LINE( '', #275, #276 );
#236 = VERTEX_POINT( '', #277 );
#237 = LINE( '', #278, #279 );
#238 = LINE( '', #280, #281 );
#239 = FILL_AREA_STYLE_COLOUR( '', #282 );
#240 = VERTEX_POINT( '', #283 );
#241 = LINE( '', #284, #285 );
#242 = LINE( '', #286, #287 );
#243 = FILL_AREA_STYLE_COLOUR( '', #288 );
#244 = VERTEX_POINT( '', #289 );
#245 = LINE( '', #290, #291 );
#246 = LINE( '', #292, #293 );
#247 = FILL_AREA_STYLE_COLOUR( '', #294 );
#248 = VERTEX_POINT( '', #295 );
#249 = CIRCLE( '', #296, 9.00000000000000 );
#250 = FILL_AREA_STYLE_COLOUR( '', #297 );
#251 = VERTEX_POINT( '', #298 );
#252 = CIRCLE( '', #299, 9.00000000000000 );
#253 = FILL_AREA_STYLE_COLOUR( '', #300 );
#254 = LINE( '', #301, #302 );
#255 = FILL_AREA_STYLE_COLOUR( '', #303 );
#256 = COLOUR_RGB( '', 0.752941191196442, 0.752941191196442, 0.752941191196442 );
#257 = CARTESIAN_POINT( '', ( 324.000000000000, 5.00000000000008, 0.000000000000000 ) );
#258 = AXIS2_PLACEMENT_3D( '', #304, #305, #306 );
#259 = CARTESIAN_POINT( '', ( -306.000000000000, 5.00000000000000, 0.000000000000000 ) );
#260 = AXIS2_PLACEMENT_3D( '', #307, #308, #309 );
#261 = CARTESIAN_POINT( '', ( 398.000000000000, 31.0000000000000, 0.000000000000000 ) );
#262 = CARTESIAN_POINT( '', ( -398.000000000000, 31.0000000000000, 0.000000000000000 ) );
#263 = CARTESIAN_POINT( '', ( 398.000000000000, 31.0000000000000, 0.000000000000000 ) );
#264 = VECTOR( '', #310, 1000.00000000000 );
#265 = CARTESIAN_POINT( '', ( 398.000000000000, -31.0000000000000, 0.000000000000000 ) );
#266 = CARTESIAN_POINT( '', ( 398.000000000000, -31.0000000000000, 0.000000000000000 ) );
#267 = VECTOR( '', #311, 1000.00000000000 );
#268 = CARTESIAN_POINT( '', ( -398.000000000000, -31.0000000000000, 0.000000000000000 ) );
#269 = CARTESIAN_POINT( '', ( -398.000000000000, -31.0000000000000, 0.000000000000000 ) );
#270 = VECTOR( '', #312, 1000.00000000000 );
#271 = CARTESIAN_POINT( '', ( -398.000000000000, 31.0000000000000, 0.000000000000000 ) );
#272 = VECTOR( '', #313, 1000.00000000000 );
#273 = COLOUR_RGB( '', 0.752941191196442, 0.752941191196442, 0.752941191196442 );
#274 = CARTESIAN_POINT( '', ( 398.000000000000, -31.0000000000000, 96.0000000000000 ) );
#275 = CARTESIAN_POINT( '', ( 398.000000000000, -31.0000000000000, 96.0000000000000 ) );
#276 = VECTOR( '', #314, 1000.00000000000 );
#277 = CARTESIAN_POINT( '', ( -398.000000000000, -31.0000000000000, 96.0000000000000 ) );
#278 = CARTESIAN_POINT( '', ( -398.000000000000, -31.0000000000000, 96.0000000000000 ) );
#279 = VECTOR( '', #315, 1000.00000000000 );
#280 = CARTESIAN_POINT( '', ( -398.000000000000, -31.0000000000000, 96.0000000000000 ) );
#281 = VECTOR( '', #316, 1000.00000000000 );
#282 = COLOUR_RGB( '', 0.752941191196442, 0.752941191196442, 0.752941191196442 );
#283 = CARTESIAN_POINT( '', ( -398.000000000000, 31.0000000000000, 96.0000000000000 ) );
#284 = CARTESIAN_POINT( '', ( -398.000000000000, 31.0000000000000, 96.0000000000000 ) );
#285 = VECTOR( '', #317, 1000.00000000000 );
#286 = CARTESIAN_POINT( '', ( -398.000000000000, 31.0000000000000, 96.0000000000000 ) );
#287 = VECTOR( '', #318, 1000.00000000000 );
#288 = COLOUR_RGB( '', 0.752941191196442, 0.752941191196442, 0.752941191196442 );
#289 = CARTESIAN_POINT( '', ( 398.000000000000, 31.0000000000000, 96.0000000000000 ) );
#290 = CARTESIAN_POINT( '', ( 398.000000000000, 31.0000000000000, 96.0000000000000 ) );
#291 = VECTOR( '', #319, 1000.00000000000 );
#292 = CARTESIAN_POINT( '', ( 398.000000000000, 31.0000000000000, 96.0000000000000 ) );
#293 = VECTOR( '', #320, 1000.00000000000 );
#294 = COLOUR_RGB( '', 0.752941191196442, 0.752941191196442, 0.752941191196442 );
#295 = CARTESIAN_POINT( '', ( 315.000000000000, -3.99999999999992, 96.0000000000000 ) );
#296 = AXIS2_PLACEMENT_3D( '', #321, #322, #323 );
#297 = COLOUR_RGB( '', 0.752941191196442, 0.752941191196442, 0.752941191196442 );
#298 = CARTESIAN_POINT( '', ( -315.000000000000, -4.00000000000000, 96.0000000000000 ) );
#299 = AXIS2_PLACEMENT_3D( '', #324, #325, #326 );
#300 = COLOUR_RGB( '', 0.752941191196442, 0.752941191196442, 0.752941191196442 );
#301 = CARTESIAN_POINT( '', ( 398.000000000000, -31.0000000000000, 96.0000000000000 ) );
#302 = VECTOR( '', #327, 1000.00000000000 );
#303 = COLOUR_RGB( '', 0.752941191196442, 0.752941191196442, 0.752941191196442 );
#304 = CARTESIAN_POINT( '', ( 315.000000000000, 5.00000000000008, 0.000000000000000 ) );
#305 = DIRECTION( '', ( 0.000000000000000, 0.000000000000000, 1.00000000000000 ) );
#306 = DIRECTION( '', ( 1.00000000000000, 0.000000000000000, 0.000000000000000 ) );
#307 = CARTESIAN_POINT( '', ( -315.000000000000, 5.00000000000000, 0.000000000000000 ) );
#308 = DIRECTION( '', ( 0.000000000000000, 0.000000000000000, 1.00000000000000 ) );
#309 = DIRECTION( '', ( 1.00000000000000, 0.000000000000000, 0.000000000000000 ) );
#310 = DIRECTION( '', ( -1.00000000000000, 2.61516101906051E-017, 0.000000000000000 ) );
#311 = DIRECTION( '', ( 0.000000000000000, 1.00000000000000, 0.000000000000000 ) );
#312 = DIRECTION( '', ( 1.00000000000000, -6.10204237780787E-017, 0.000000000000000 ) );
#313 = DIRECTION( '', ( 0.000000000000000, -1.00000000000000, 0.000000000000000 ) );
#314 = DIRECTION( '', ( 0.000000000000000, 0.000000000000000, -1.00000000000000 ) );
#315 = DIRECTION( '', ( 1.00000000000000, -6.10204237780787E-017, 0.000000000000000 ) );
#316 = DIRECTION( '', ( 0.000000000000000, 0.000000000000000, -1.00000000000000 ) );
#317 = DIRECTION( '', ( 0.000000000000000, -1.00000000000000, 0.000000000000000 ) );
#318 = DIRECTION( '', ( 0.000000000000000, 0.000000000000000, -1.00000000000000 ) );
#319 = DIRECTION( '', ( -1.00000000000000, 2.61516101906051E-017, 0.000000000000000 ) );
#320 = DIRECTION( '', ( 0.000000000000000, 0.000000000000000, -1.00000000000000 ) );
#321 = CARTESIAN_POINT( '', ( 315.000000000000, 5.00000000000008, 96.0000000000000 ) );
#322 = DIRECTION( '', ( 0.000000000000000, 0.000000000000000, -1.00000000000000 ) );
#323 = DIRECTION( '', ( 0.000000000000000, -1.00000000000000, 0.000000000000000 ) );
#324 = CARTESIAN_POINT( '', ( -315.000000000000, 5.00000000000000, 96.0000000000000 ) );
#325 = DIRECTION( '', ( 0.000000000000000, 0.000000000000000, -1.00000000000000 ) );
#326 = DIRECTION( '', ( 0.000000000000000, -1.00000000000000, 0.000000000000000 ) );
#327 = DIRECTION( '', ( 0.000000000000000, 1.00000000000000, 0.000000000000000 ) );
ENDSEC;
END-ISO-10303-21;
