ISO-10303-21;
HEADER;
FILE_DESCRIPTION( ( 'Unknown' ), '1' );
FILE_NAME( 'M:/Piezas_3D/Placas_Par/G1 y G2/OS_G1_396x896x116_.stp', 'Unknown', ( 'Unknown' ), ( 'Unknown' ), 'PSStep 16.0.42', 'Unknown', '  ' );
FILE_SCHEMA( ( 'AUTOMOTIVE_DESIGN { 1 0 10303 214 1 1 1 1 }' ) );
ENDSEC;
DATA;
#1 = MECHANICAL_DESIGN_GEOMETRIC_PRESENTATION_REPRESENTATION( ' ', ( #10, #11, #12, #13, #14, #15, #16, #17 ), #6 );
#2 = PRODUCT_DEFINITION_CONTEXT( '', #18, 'design' );
#3 = APPLICATION_PROTOCOL_DEFINITION( 'international standard', 'automotive_design', 2001, #18 );
#4 = PRODUCT_CATEGORY_RELATIONSHIP( 'NONE', 'NONE', #19, #20 );
#5 = SHAPE_DEFINITION_REPRESENTATION( #21, #22 );
#6 =  ( GEOMETRIC_REPRESENTATION_CONTEXT( 3 )GLOBAL_UNCERTAINTY_ASSIGNED_CONTEXT( ( #25 ) )GLOBAL_UNIT_ASSIGNED_CONTEXT( ( #27, #28, #29 ) )REPRESENTATION_CONTEXT( 'NONE', 'WORKSPACE' ) );
#10 = STYLED_ITEM( '', ( #31 ), #32 );
#11 = STYLED_ITEM( '', ( #33 ), #34 );
#12 = STYLED_ITEM( '', ( #35 ), #36 );
#13 = STYLED_ITEM( '', ( #37 ), #38 );
#14 = STYLED_ITEM( '', ( #39 ), #40 );
#15 = STYLED_ITEM( '', ( #41 ), #42 );
#16 = STYLED_ITEM( '', ( #43 ), #44 );
#17 = STYLED_ITEM( '', ( #45 ), #46 );
#18 = APPLICATION_CONTEXT( 'core data for automotive mechanical design processes' );
#19 = PRODUCT_CATEGORY( 'part', 'NONE' );
#20 = PRODUCT_RELATED_PRODUCT_CATEGORY( 'detail', ' ', ( #47 ) );
#21 = PRODUCT_DEFINITION_SHAPE( 'NONE', 'NONE', #48 );
#22 = ADVANCED_BREP_SHAPE_REPRESENTATION( '1', ( #49, #50 ), #6 );
#25 = UNCERTAINTY_MEASURE_WITH_UNIT( LENGTH_MEASURE( 0.00100000000000000 ), #27, '', '' );
#27 =  ( CONVERSION_BASED_UNIT( 'MILLIMETRE', #53 )LENGTH_UNIT(  )NAMED_UNIT( #56 ) );
#28 =  ( NAMED_UNIT( #58 )PLANE_ANGLE_UNIT(  )SI_UNIT( $, .RADIAN. ) );
#29 =  ( NAMED_UNIT( #58 )SI_UNIT( $, .STERADIAN. )SOLID_ANGLE_UNIT(  ) );
#31 = PRESENTATION_STYLE_ASSIGNMENT( ( #64 ) );
#32 = ADVANCED_FACE( '', ( #65, #66, #67 ), #68, .T. );
#33 = PRESENTATION_STYLE_ASSIGNMENT( ( #69 ) );
#34 = ADVANCED_FACE( '', ( #70 ), #71, .F. );
#35 = PRESENTATION_STYLE_ASSIGNMENT( ( #72 ) );
#36 = ADVANCED_FACE( '', ( #73, #74, #75 ), #76, .F. );
#37 = PRESENTATION_STYLE_ASSIGNMENT( ( #77 ) );
#38 = ADVANCED_FACE( '', ( #78, #79 ), #80, .F. );
#39 = PRESENTATION_STYLE_ASSIGNMENT( ( #81 ) );
#40 = ADVANCED_FACE( '', ( #82 ), #83, .F. );
#41 = PRESENTATION_STYLE_ASSIGNMENT( ( #84 ) );
#42 = ADVANCED_FACE( '', ( #85 ), #86, .F. );
#43 = PRESENTATION_STYLE_ASSIGNMENT( ( #87 ) );
#44 = ADVANCED_FACE( '', ( #88 ), #89, .F. );
#45 = PRESENTATION_STYLE_ASSIGNMENT( ( #90 ) );
#46 = ADVANCED_FACE( '', ( #91, #92 ), #93, .F. );
#47 = PRODUCT( '1', '1', 'PART-1-DESC', ( #94 ) );
#48 = PRODUCT_DEFINITION( 'NONE', 'NONE', #95, #2 );
#49 = MANIFOLD_SOLID_BREP( '1', #96 );
#50 = AXIS2_PLACEMENT_3D( '', #97, #98, #99 );
#53 = LENGTH_MEASURE_WITH_UNIT( LENGTH_MEASURE( 1.00000000000000 ), #100 );
#56 = DIMENSIONAL_EXPONENTS( 1.00000000000000, 0.000000000000000, 0.000000000000000, 0.000000000000000, 0.000000000000000, 0.000000000000000, 0.000000000000000 );
#58 = DIMENSIONAL_EXPONENTS( 0.000000000000000, 0.000000000000000, 0.000000000000000, 0.000000000000000, 0.000000000000000, 0.000000000000000, 0.000000000000000 );
#64 = SURFACE_STYLE_USAGE( .BOTH., #101 );
#65 = FACE_BOUND( '', #102, .T. );
#66 = FACE_BOUND( '', #103, .T. );
#67 = FACE_OUTER_BOUND( '', #104, .T. );
#68 = PLANE( '', #105 );
#69 = SURFACE_STYLE_USAGE( .BOTH., #106 );
#70 = FACE_OUTER_BOUND( '', #107, .T. );
#71 = PLANE( '', #108 );
#72 = SURFACE_STYLE_USAGE( .BOTH., #109 );
#73 = FACE_BOUND( '', #110, .T. );
#74 = FACE_BOUND( '', #111, .T. );
#75 = FACE_OUTER_BOUND( '', #112, .T. );
#76 = PLANE( '', #113 );
#77 = SURFACE_STYLE_USAGE( .BOTH., #114 );
#78 = FACE_OUTER_BOUND( '', #115, .T. );
#79 = FACE_OUTER_BOUND( '', #116, .T. );
#80 = CYLINDRICAL_SURFACE( '', #117, 9.00000000000000 );
#81 = SURFACE_STYLE_USAGE( .BOTH., #118 );
#82 = FACE_OUTER_BOUND( '', #119, .T. );
#83 = PLANE( '', #120 );
#84 = SURFACE_STYLE_USAGE( .BOTH., #121 );
#85 = FACE_OUTER_BOUND( '', #122, .T. );
#86 = PLANE( '', #123 );
#87 = SURFACE_STYLE_USAGE( .BOTH., #124 );
#88 = FACE_OUTER_BOUND( '', #125, .T. );
#89 = PLANE( '', #126 );
#90 = SURFACE_STYLE_USAGE( .BOTH., #127 );
#91 = FACE_OUTER_BOUND( '', #128, .T. );
#92 = FACE_OUTER_BOUND( '', #129, .T. );
#93 = CYLINDRICAL_SURFACE( '', #130, 9.00000000000000 );
#94 = PRODUCT_CONTEXT( '', #18, 'mechanical' );
#95 = PRODUCT_DEFINITION_FORMATION_WITH_SPECIFIED_SOURCE( ' ', 'NONE', #47, .NOT_KNOWN. );
#96 = CLOSED_SHELL( '', ( #38, #36, #34, #32, #40, #44, #42, #46 ) );
#97 = CARTESIAN_POINT( '', ( 0.000000000000000, 0.000000000000000, 0.000000000000000 ) );
#98 = DIRECTION( '', ( 0.000000000000000, 0.000000000000000, 1.00000000000000 ) );
#99 = DIRECTION( '', ( 1.00000000000000, 0.000000000000000, 0.000000000000000 ) );
#100 =  ( LENGTH_UNIT(  )NAMED_UNIT( #56 )SI_UNIT( .MILLI., .METRE. ) );
#101 = SURFACE_SIDE_STYLE( '', ( #132 ) );
#102 = EDGE_LOOP( '', ( #133 ) );
#103 = EDGE_LOOP( '', ( #134 ) );
#104 = EDGE_LOOP( '', ( #135, #136, #137, #138 ) );
#105 = AXIS2_PLACEMENT_3D( '', #139, #140, #141 );
#106 = SURFACE_SIDE_STYLE( '', ( #142 ) );
#107 = EDGE_LOOP( '', ( #143, #144, #145, #146 ) );
#108 = AXIS2_PLACEMENT_3D( '', #147, #148, #149 );
#109 = SURFACE_SIDE_STYLE( '', ( #150 ) );
#110 = EDGE_LOOP( '', ( #151 ) );
#111 = EDGE_LOOP( '', ( #152 ) );
#112 = EDGE_LOOP( '', ( #153, #154, #155, #156 ) );
#113 = AXIS2_PLACEMENT_3D( '', #157, #158, #159 );
#114 = SURFACE_SIDE_STYLE( '', ( #160 ) );
#115 = EDGE_LOOP( '', ( #161 ) );
#116 = EDGE_LOOP( '', ( #162 ) );
#117 = AXIS2_PLACEMENT_3D( '', #163, #164, #165 );
#118 = SURFACE_SIDE_STYLE( '', ( #166 ) );
#119 = EDGE_LOOP( '', ( #167, #168, #169, #170 ) );
#120 = AXIS2_PLACEMENT_3D( '', #171, #172, #173 );
#121 = SURFACE_SIDE_STYLE( '', ( #174 ) );
#122 = EDGE_LOOP( '', ( #175, #176, #177, #178 ) );
#123 = AXIS2_PLACEMENT_3D( '', #179, #180, #181 );
#124 = SURFACE_SIDE_STYLE( '', ( #182 ) );
#125 = EDGE_LOOP( '', ( #183, #184, #185, #186 ) );
#126 = AXIS2_PLACEMENT_3D( '', #187, #188, #189 );
#127 = SURFACE_SIDE_STYLE( '', ( #190 ) );
#128 = EDGE_LOOP( '', ( #191 ) );
#129 = EDGE_LOOP( '', ( #192 ) );
#130 = AXIS2_PLACEMENT_3D( '', #193, #194, #195 );
#132 = SURFACE_STYLE_FILL_AREA( #196 );
#133 = ORIENTED_EDGE( '', *, *, #197, .T. );
#134 = ORIENTED_EDGE( '', *, *, #198, .T. );
#135 = ORIENTED_EDGE( '', *, *, #199, .T. );
#136 = ORIENTED_EDGE( '', *, *, #200, .T. );
#137 = ORIENTED_EDGE( '', *, *, #201, .T. );
#138 = ORIENTED_EDGE( '', *, *, #202, .T. );
#139 = CARTESIAN_POINT( '', ( -448.000000000000, 31.0000000000000, 116.000000000000 ) );
#140 = DIRECTION( '', ( 0.000000000000000, 0.000000000000000, 1.00000000000000 ) );
#141 = DIRECTION( '', ( 1.00000000000000, 0.000000000000000, 0.000000000000000 ) );
#142 = SURFACE_STYLE_FILL_AREA( #203 );
#143 = ORIENTED_EDGE( '', *, *, #204, .T. );
#144 = ORIENTED_EDGE( '', *, *, #205, .F. );
#145 = ORIENTED_EDGE( '', *, *, #202, .F. );
#146 = ORIENTED_EDGE( '', *, *, #206, .T. );
#147 = CARTESIAN_POINT( '', ( 448.000000000000, -31.0000000000000, 116.000000000000 ) );
#148 = DIRECTION( '', ( -1.00000000000000, 0.000000000000000, 0.000000000000000 ) );
#149 = DIRECTION( '', ( 0.000000000000000, 0.000000000000000, 1.00000000000000 ) );
#150 = SURFACE_STYLE_FILL_AREA( #207 );
#151 = ORIENTED_EDGE( '', *, *, #208, .T. );
#152 = ORIENTED_EDGE( '', *, *, #209, .T. );
#153 = ORIENTED_EDGE( '', *, *, #210, .F. );
#154 = ORIENTED_EDGE( '', *, *, #204, .F. );
#155 = ORIENTED_EDGE( '', *, *, #211, .F. );
#156 = ORIENTED_EDGE( '', *, *, #212, .F. );
#157 = CARTESIAN_POINT( '', ( -448.000000000000, 31.0000000000000, 0.000000000000000 ) );
#158 = DIRECTION( '', ( 0.000000000000000, 0.000000000000000, 1.00000000000000 ) );
#159 = DIRECTION( '', ( 1.00000000000000, 0.000000000000000, 0.000000000000000 ) );
#160 = SURFACE_STYLE_FILL_AREA( #213 );
#161 = ORIENTED_EDGE( '', *, *, #197, .F. );
#162 = ORIENTED_EDGE( '', *, *, #208, .F. );
#163 = CARTESIAN_POINT( '', ( 365.000000000000, 5.00000000000008, 116.000000000000 ) );
#164 = DIRECTION( '', ( -0.000000000000000, -0.000000000000000, 1.00000000000000 ) );
#165 = DIRECTION( '', ( 0.000000000000000, -1.00000000000000, 0.000000000000000 ) );
#166 = SURFACE_STYLE_FILL_AREA( #214 );
#167 = ORIENTED_EDGE( '', *, *, #211, .T. );
#168 = ORIENTED_EDGE( '', *, *, #206, .F. );
#169 = ORIENTED_EDGE( '', *, *, #201, .F. );
#170 = ORIENTED_EDGE( '', *, *, #215, .T. );
#171 = CARTESIAN_POINT( '', ( -448.000000000000, -31.0000000000000, 116.000000000000 ) );
#172 = DIRECTION( '', ( 5.80822592402949E-017, 1.00000000000000, 0.000000000000000 ) );
#173 = DIRECTION( '', ( -1.00000000000000, 5.80822592402949E-017, 0.000000000000000 ) );
#174 = SURFACE_STYLE_FILL_AREA( #216 );
#175 = ORIENTED_EDGE( '', *, *, #212, .T. );
#176 = ORIENTED_EDGE( '', *, *, #215, .F. );
#177 = ORIENTED_EDGE( '', *, *, #200, .F. );
#178 = ORIENTED_EDGE( '', *, *, #217, .T. );
#179 = CARTESIAN_POINT( '', ( -448.000000000000, 31.0000000000000, 116.000000000000 ) );
#180 = DIRECTION( '', ( 1.00000000000000, 0.000000000000000, 0.000000000000000 ) );
#181 = DIRECTION( '', ( 0.000000000000000, 0.000000000000000, -1.00000000000000 ) );
#182 = SURFACE_STYLE_FILL_AREA( #218 );
#183 = ORIENTED_EDGE( '', *, *, #210, .T. );
#184 = ORIENTED_EDGE( '', *, *, #217, .F. );
#185 = ORIENTED_EDGE( '', *, *, #199, .F. );
#186 = ORIENTED_EDGE( '', *, *, #205, .T. );
#187 = CARTESIAN_POINT( '', ( 448.000000000000, 31.0000000000000, 116.000000000000 ) );
#188 = DIRECTION( '', ( -3.48493555441769E-017, -1.00000000000000, 0.000000000000000 ) );
#189 = DIRECTION( '', ( 1.00000000000000, -3.48493555441769E-017, 0.000000000000000 ) );
#190 = SURFACE_STYLE_FILL_AREA( #219 );
#191 = ORIENTED_EDGE( '', *, *, #198, .F. );
#192 = ORIENTED_EDGE( '', *, *, #209, .F. );
#193 = CARTESIAN_POINT( '', ( -365.000000000000, 5.00000000000000, 116.000000000000 ) );
#194 = DIRECTION( '', ( -0.000000000000000, -0.000000000000000, 1.00000000000000 ) );
#195 = DIRECTION( '', ( 0.000000000000000, -1.00000000000000, 0.000000000000000 ) );
#196 = FILL_AREA_STYLE( '', ( #220 ) );
#197 = EDGE_CURVE( '', #221, #221, #222, .T. );
#198 = EDGE_CURVE( '', #223, #223, #224, .T. );
#199 = EDGE_CURVE( '', #225, #226, #227, .T. );
#200 = EDGE_CURVE( '', #226, #228, #229, .T. );
#201 = EDGE_CURVE( '', #228, #230, #231, .T. );
#202 = EDGE_CURVE( '', #230, #225, #232, .T. );
#203 = FILL_AREA_STYLE( '', ( #233 ) );
#204 = EDGE_CURVE( '', #234, #235, #236, .T. );
#205 = EDGE_CURVE( '', #225, #235, #237, .T. );
#206 = EDGE_CURVE( '', #230, #234, #238, .T. );
#207 = FILL_AREA_STYLE( '', ( #239 ) );
#208 = EDGE_CURVE( '', #240, #240, #241, .T. );
#209 = EDGE_CURVE( '', #242, #242, #243, .T. );
#210 = EDGE_CURVE( '', #235, #244, #245, .T. );
#211 = EDGE_CURVE( '', #246, #234, #247, .T. );
#212 = EDGE_CURVE( '', #244, #246, #248, .T. );
#213 = FILL_AREA_STYLE( '', ( #249 ) );
#214 = FILL_AREA_STYLE( '', ( #250 ) );
#215 = EDGE_CURVE( '', #228, #246, #251, .T. );
#216 = FILL_AREA_STYLE( '', ( #252 ) );
#217 = EDGE_CURVE( '', #226, #244, #253, .T. );
#218 = FILL_AREA_STYLE( '', ( #254 ) );
#219 = FILL_AREA_STYLE( '', ( #255 ) );
#220 = FILL_AREA_STYLE_COLOUR( '', #256 );
#221 = VERTEX_POINT( '', #257 );
#222 = CIRCLE( '', #258, 9.00000000000000 );
#223 = VERTEX_POINT( '', #259 );
#224 = CIRCLE( '', #260, 9.00000000000000 );
#225 = VERTEX_POINT( '', #261 );
#226 = VERTEX_POINT( '', #262 );
#227 = LINE( '', #263, #264 );
#228 = VERTEX_POINT( '', #265 );
#229 = LINE( '', #266, #267 );
#230 = VERTEX_POINT( '', #268 );
#231 = LINE( '', #269, #270 );
#232 = LINE( '', #271, #272 );
#233 = FILL_AREA_STYLE_COLOUR( '', #273 );
#234 = VERTEX_POINT( '', #274 );
#235 = VERTEX_POINT( '', #275 );
#236 = LINE( '', #276, #277 );
#237 = LINE( '', #278, #279 );
#238 = LINE( '', #280, #281 );
#239 = FILL_AREA_STYLE_COLOUR( '', #282 );
#240 = VERTEX_POINT( '', #283 );
#241 = CIRCLE( '', #284, 9.00000000000000 );
#242 = VERTEX_POINT( '', #285 );
#243 = CIRCLE( '', #286, 9.00000000000000 );
#244 = VERTEX_POINT( '', #287 );
#245 = LINE( '', #288, #289 );
#246 = VERTEX_POINT( '', #290 );
#247 = LINE( '', #291, #292 );
#248 = LINE( '', #293, #294 );
#249 = FILL_AREA_STYLE_COLOUR( '', #295 );
#250 = FILL_AREA_STYLE_COLOUR( '', #296 );
#251 = LINE( '', #297, #298 );
#252 = FILL_AREA_STYLE_COLOUR( '', #299 );
#253 = LINE( '', #300, #301 );
#254 = FILL_AREA_STYLE_COLOUR( '', #302 );
#255 = FILL_AREA_STYLE_COLOUR( '', #303 );
#256 = COLOUR_RGB( '', 0.752941191196442, 0.752941191196442, 0.752941191196442 );
#257 = CARTESIAN_POINT( '', ( 365.000000000000, -3.99999999999992, 116.000000000000 ) );
#258 = AXIS2_PLACEMENT_3D( '', #304, #305, #306 );
#259 = CARTESIAN_POINT( '', ( -365.000000000000, -4.00000000000000, 116.000000000000 ) );
#260 = AXIS2_PLACEMENT_3D( '', #307, #308, #309 );
#261 = CARTESIAN_POINT( '', ( 448.000000000000, 31.0000000000000, 116.000000000000 ) );
#262 = CARTESIAN_POINT( '', ( -448.000000000000, 31.0000000000000, 116.000000000000 ) );
#263 = CARTESIAN_POINT( '', ( 448.000000000000, 31.0000000000000, 116.000000000000 ) );
#264 = VECTOR( '', #310, 1000.00000000000 );
#265 = CARTESIAN_POINT( '', ( -448.000000000000, -31.0000000000000, 116.000000000000 ) );
#266 = CARTESIAN_POINT( '', ( -448.000000000000, 31.0000000000000, 116.000000000000 ) );
#267 = VECTOR( '', #311, 1000.00000000000 );
#268 = CARTESIAN_POINT( '', ( 448.000000000000, -31.0000000000000, 116.000000000000 ) );
#269 = CARTESIAN_POINT( '', ( -448.000000000000, -31.0000000000000, 116.000000000000 ) );
#270 = VECTOR( '', #312, 1000.00000000000 );
#271 = CARTESIAN_POINT( '', ( 448.000000000000, -31.0000000000000, 116.000000000000 ) );
#272 = VECTOR( '', #313, 1000.00000000000 );
#273 = COLOUR_RGB( '', 0.752941191196442, 0.752941191196442, 0.752941191196442 );
#274 = CARTESIAN_POINT( '', ( 448.000000000000, -31.0000000000000, 0.000000000000000 ) );
#275 = CARTESIAN_POINT( '', ( 448.000000000000, 31.0000000000000, 0.000000000000000 ) );
#276 = CARTESIAN_POINT( '', ( 448.000000000000, -31.0000000000000, 0.000000000000000 ) );
#277 = VECTOR( '', #314, 1000.00000000000 );
#278 = CARTESIAN_POINT( '', ( 448.000000000000, 31.0000000000000, 116.000000000000 ) );
#279 = VECTOR( '', #315, 1000.00000000000 );
#280 = CARTESIAN_POINT( '', ( 448.000000000000, -31.0000000000000, 116.000000000000 ) );
#281 = VECTOR( '', #316, 1000.00000000000 );
#282 = COLOUR_RGB( '', 0.752941191196442, 0.752941191196442, 0.752941191196442 );
#283 = CARTESIAN_POINT( '', ( 374.000000000000, 5.00000000000008, 0.000000000000000 ) );
#284 = AXIS2_PLACEMENT_3D( '', #317, #318, #319 );
#285 = CARTESIAN_POINT( '', ( -356.000000000000, 5.00000000000000, 0.000000000000000 ) );
#286 = AXIS2_PLACEMENT_3D( '', #320, #321, #322 );
#287 = CARTESIAN_POINT( '', ( -448.000000000000, 31.0000000000000, 0.000000000000000 ) );
#288 = CARTESIAN_POINT( '', ( 448.000000000000, 31.0000000000000, 0.000000000000000 ) );
#289 = VECTOR( '', #323, 1000.00000000000 );
#290 = CARTESIAN_POINT( '', ( -448.000000000000, -31.0000000000000, 0.000000000000000 ) );
#291 = CARTESIAN_POINT( '', ( -448.000000000000, -31.0000000000000, 0.000000000000000 ) );
#292 = VECTOR( '', #324, 1000.00000000000 );
#293 = CARTESIAN_POINT( '', ( -448.000000000000, 31.0000000000000, 0.000000000000000 ) );
#294 = VECTOR( '', #325, 1000.00000000000 );
#295 = COLOUR_RGB( '', 0.752941191196442, 0.752941191196442, 0.752941191196442 );
#296 = COLOUR_RGB( '', 0.752941191196442, 0.752941191196442, 0.752941191196442 );
#297 = CARTESIAN_POINT( '', ( -448.000000000000, -31.0000000000000, 116.000000000000 ) );
#298 = VECTOR( '', #326, 1000.00000000000 );
#299 = COLOUR_RGB( '', 0.752941191196442, 0.752941191196442, 0.752941191196442 );
#300 = CARTESIAN_POINT( '', ( -448.000000000000, 31.0000000000000, 116.000000000000 ) );
#301 = VECTOR( '', #327, 1000.00000000000 );
#302 = COLOUR_RGB( '', 0.752941191196442, 0.752941191196442, 0.752941191196442 );
#303 = COLOUR_RGB( '', 0.752941191196442, 0.752941191196442, 0.752941191196442 );
#304 = CARTESIAN_POINT( '', ( 365.000000000000, 5.00000000000008, 116.000000000000 ) );
#305 = DIRECTION( '', ( 0.000000000000000, 0.000000000000000, -1.00000000000000 ) );
#306 = DIRECTION( '', ( 0.000000000000000, -1.00000000000000, 0.000000000000000 ) );
#307 = CARTESIAN_POINT( '', ( -365.000000000000, 5.00000000000000, 116.000000000000 ) );
#308 = DIRECTION( '', ( 0.000000000000000, 0.000000000000000, -1.00000000000000 ) );
#309 = DIRECTION( '', ( 0.000000000000000, -1.00000000000000, 0.000000000000000 ) );
#310 = DIRECTION( '', ( -1.00000000000000, 3.48493555441769E-017, 0.000000000000000 ) );
#311 = DIRECTION( '', ( 0.000000000000000, -1.00000000000000, 0.000000000000000 ) );
#312 = DIRECTION( '', ( 1.00000000000000, -5.80822592402949E-017, 0.000000000000000 ) );
#313 = DIRECTION( '', ( 0.000000000000000, 1.00000000000000, 0.000000000000000 ) );
#314 = DIRECTION( '', ( 0.000000000000000, 1.00000000000000, 0.000000000000000 ) );
#315 = DIRECTION( '', ( 0.000000000000000, 0.000000000000000, -1.00000000000000 ) );
#316 = DIRECTION( '', ( 0.000000000000000, 0.000000000000000, -1.00000000000000 ) );
#317 = CARTESIAN_POINT( '', ( 365.000000000000, 5.00000000000008, 0.000000000000000 ) );
#318 = DIRECTION( '', ( 0.000000000000000, 0.000000000000000, 1.00000000000000 ) );
#319 = DIRECTION( '', ( 1.00000000000000, 0.000000000000000, 0.000000000000000 ) );
#320 = CARTESIAN_POINT( '', ( -365.000000000000, 5.00000000000000, 0.000000000000000 ) );
#321 = DIRECTION( '', ( 0.000000000000000, 0.000000000000000, 1.00000000000000 ) );
#322 = DIRECTION( '', ( 1.00000000000000, 0.000000000000000, 0.000000000000000 ) );
#323 = DIRECTION( '', ( -1.00000000000000, 3.48493555441769E-017, 0.000000000000000 ) );
#324 = DIRECTION( '', ( 1.00000000000000, -5.80822592402949E-017, 0.000000000000000 ) );
#325 = DIRECTION( '', ( 0.000000000000000, -1.00000000000000, 0.000000000000000 ) );
#326 = DIRECTION( '', ( 0.000000000000000, 0.000000000000000, -1.00000000000000 ) );
#327 = DIRECTION( '', ( 0.000000000000000, 0.000000000000000, -1.00000000000000 ) );
ENDSEC;
END-ISO-10303-21;
