ISO-10303-21;
HEADER;
FILE_DESCRIPTION( ( 'Unknown' ), '1' );
FILE_NAME( 'M:/Piezas_3D/Placas_Par/G1 y G2/OS_G1_446x896x116_.stp', 'Unknown', ( 'Unknown' ), ( 'Unknown' ), 'PSStep 16.0.42', 'Unknown', '  ' );
FILE_SCHEMA( ( 'AUTOMOTIVE_DESIGN { 1 0 10303 214 1 1 1 1 }' ) );
ENDSEC;
DATA;
#1 = MECHANICAL_DESIGN_GEOMETRIC_PRESENTATION_REPRESENTATION( ' ', ( #10, #11, #12, #13, #14, #15, #16, #17 ), #6 );
#2 = PRODUCT_DEFINITION_CONTEXT( '', #18, 'design' );
#3 = APPLICATION_PROTOCOL_DEFINITION( 'international standard', 'automotive_design', 2001, #18 );
#4 = PRODUCT_CATEGORY_RELATIONSHIP( 'NONE', 'NONE', #19, #20 );
#5 = SHAPE_DEFINITION_REPRESENTATION( #21, #22 );
#6 =  ( GEOMETRIC_REPRESENTATION_CONTEXT( 3 )GLOBAL_UNCERTAINTY_ASSIGNED_CONTEXT( ( #25 ) )GLOBAL_UNIT_ASSIGNED_CONTEXT( ( #27, #28, #29 ) )REPRESENTATION_CONTEXT( 'NONE', 'WORKSPACE' ) );
#10 = STYLED_ITEM( '', ( #31 ), #32 );
#11 = STYLED_ITEM( '', ( #33 ), #34 );
#12 = STYLED_ITEM( '', ( #35 ), #36 );
#13 = STYLED_ITEM( '', ( #37 ), #38 );
#14 = STYLED_ITEM( '', ( #39 ), #40 );
#15 = STYLED_ITEM( '', ( #41 ), #42 );
#16 = STYLED_ITEM( '', ( #43 ), #44 );
#17 = STYLED_ITEM( '', ( #45 ), #46 );
#18 = APPLICATION_CONTEXT( 'core data for automotive mechanical design processes' );
#19 = PRODUCT_CATEGORY( 'part', 'NONE' );
#20 = PRODUCT_RELATED_PRODUCT_CATEGORY( 'detail', ' ', ( #47 ) );
#21 = PRODUCT_DEFINITION_SHAPE( 'NONE', 'NONE', #48 );
#22 = ADVANCED_BREP_SHAPE_REPRESENTATION( '1', ( #49, #50 ), #6 );
#25 = UNCERTAINTY_MEASURE_WITH_UNIT( LENGTH_MEASURE( 0.00100000000000000 ), #27, '', '' );
#27 =  ( CONVERSION_BASED_UNIT( 'MILLIMETRE', #53 )LENGTH_UNIT(  )NAMED_UNIT( #56 ) );
#28 =  ( NAMED_UNIT( #58 )PLANE_ANGLE_UNIT(  )SI_UNIT( $, .RADIAN. ) );
#29 =  ( NAMED_UNIT( #58 )SI_UNIT( $, .STERADIAN. )SOLID_ANGLE_UNIT(  ) );
#31 = PRESENTATION_STYLE_ASSIGNMENT( ( #64 ) );
#32 = ADVANCED_FACE( '', ( #65, #66, #67 ), #68, .T. );
#33 = PRESENTATION_STYLE_ASSIGNMENT( ( #69 ) );
#34 = ADVANCED_FACE( '', ( #70, #71, #72 ), #73, .F. );
#35 = PRESENTATION_STYLE_ASSIGNMENT( ( #74 ) );
#36 = ADVANCED_FACE( '', ( #75, #76 ), #77, .F. );
#37 = PRESENTATION_STYLE_ASSIGNMENT( ( #78 ) );
#38 = ADVANCED_FACE( '', ( #79 ), #80, .F. );
#39 = PRESENTATION_STYLE_ASSIGNMENT( ( #81 ) );
#40 = ADVANCED_FACE( '', ( #82, #83 ), #84, .F. );
#41 = PRESENTATION_STYLE_ASSIGNMENT( ( #85 ) );
#42 = ADVANCED_FACE( '', ( #86 ), #87, .F. );
#43 = PRESENTATION_STYLE_ASSIGNMENT( ( #88 ) );
#44 = ADVANCED_FACE( '', ( #89 ), #90, .F. );
#45 = PRESENTATION_STYLE_ASSIGNMENT( ( #91 ) );
#46 = ADVANCED_FACE( '', ( #92 ), #93, .F. );
#47 = PRODUCT( '1', '1', 'PART-1-DESC', ( #94 ) );
#48 = PRODUCT_DEFINITION( 'NONE', 'NONE', #95, #2 );
#49 = MANIFOLD_SOLID_BREP( '1', #96 );
#50 = AXIS2_PLACEMENT_3D( '', #97, #98, #99 );
#53 = LENGTH_MEASURE_WITH_UNIT( LENGTH_MEASURE( 1.00000000000000 ), #100 );
#56 = DIMENSIONAL_EXPONENTS( 1.00000000000000, 0.000000000000000, 0.000000000000000, 0.000000000000000, 0.000000000000000, 0.000000000000000, 0.000000000000000 );
#58 = DIMENSIONAL_EXPONENTS( 0.000000000000000, 0.000000000000000, 0.000000000000000, 0.000000000000000, 0.000000000000000, 0.000000000000000, 0.000000000000000 );
#64 = SURFACE_STYLE_USAGE( .BOTH., #101 );
#65 = FACE_BOUND( '', #102, .T. );
#66 = FACE_BOUND( '', #103, .T. );
#67 = FACE_OUTER_BOUND( '', #104, .T. );
#68 = PLANE( '', #105 );
#69 = SURFACE_STYLE_USAGE( .BOTH., #106 );
#70 = FACE_BOUND( '', #107, .T. );
#71 = FACE_BOUND( '', #108, .T. );
#72 = FACE_OUTER_BOUND( '', #109, .T. );
#73 = PLANE( '', #110 );
#74 = SURFACE_STYLE_USAGE( .BOTH., #111 );
#75 = FACE_OUTER_BOUND( '', #112, .T. );
#76 = FACE_OUTER_BOUND( '', #113, .T. );
#77 = CYLINDRICAL_SURFACE( '', #114, 9.00000000000000 );
#78 = SURFACE_STYLE_USAGE( .BOTH., #115 );
#79 = FACE_OUTER_BOUND( '', #116, .T. );
#80 = PLANE( '', #117 );
#81 = SURFACE_STYLE_USAGE( .BOTH., #118 );
#82 = FACE_OUTER_BOUND( '', #119, .T. );
#83 = FACE_OUTER_BOUND( '', #120, .T. );
#84 = CYLINDRICAL_SURFACE( '', #121, 9.00000000000000 );
#85 = SURFACE_STYLE_USAGE( .BOTH., #122 );
#86 = FACE_OUTER_BOUND( '', #123, .T. );
#87 = PLANE( '', #124 );
#88 = SURFACE_STYLE_USAGE( .BOTH., #125 );
#89 = FACE_OUTER_BOUND( '', #126, .T. );
#90 = PLANE( '', #127 );
#91 = SURFACE_STYLE_USAGE( .BOTH., #128 );
#92 = FACE_OUTER_BOUND( '', #129, .T. );
#93 = PLANE( '', #130 );
#94 = PRODUCT_CONTEXT( '', #18, 'mechanical' );
#95 = PRODUCT_DEFINITION_FORMATION_WITH_SPECIFIED_SOURCE( ' ', 'NONE', #47, .NOT_KNOWN. );
#96 = CLOSED_SHELL( '', ( #40, #34, #42, #32, #44, #38, #46, #36 ) );
#97 = CARTESIAN_POINT( '', ( 0.000000000000000, 0.000000000000000, 0.000000000000000 ) );
#98 = DIRECTION( '', ( 0.000000000000000, 0.000000000000000, 1.00000000000000 ) );
#99 = DIRECTION( '', ( 1.00000000000000, 0.000000000000000, 0.000000000000000 ) );
#100 =  ( LENGTH_UNIT(  )NAMED_UNIT( #56 )SI_UNIT( .MILLI., .METRE. ) );
#101 = SURFACE_SIDE_STYLE( '', ( #132 ) );
#102 = EDGE_LOOP( '', ( #133 ) );
#103 = EDGE_LOOP( '', ( #134 ) );
#104 = EDGE_LOOP( '', ( #135, #136, #137, #138 ) );
#105 = AXIS2_PLACEMENT_3D( '', #139, #140, #141 );
#106 = SURFACE_SIDE_STYLE( '', ( #142 ) );
#107 = EDGE_LOOP( '', ( #143 ) );
#108 = EDGE_LOOP( '', ( #144 ) );
#109 = EDGE_LOOP( '', ( #145, #146, #147, #148 ) );
#110 = AXIS2_PLACEMENT_3D( '', #149, #150, #151 );
#111 = SURFACE_SIDE_STYLE( '', ( #152 ) );
#112 = EDGE_LOOP( '', ( #153 ) );
#113 = EDGE_LOOP( '', ( #154 ) );
#114 = AXIS2_PLACEMENT_3D( '', #155, #156, #157 );
#115 = SURFACE_SIDE_STYLE( '', ( #158 ) );
#116 = EDGE_LOOP( '', ( #159, #160, #161, #162 ) );
#117 = AXIS2_PLACEMENT_3D( '', #163, #164, #165 );
#118 = SURFACE_SIDE_STYLE( '', ( #166 ) );
#119 = EDGE_LOOP( '', ( #167 ) );
#120 = EDGE_LOOP( '', ( #168 ) );
#121 = AXIS2_PLACEMENT_3D( '', #169, #170, #171 );
#122 = SURFACE_SIDE_STYLE( '', ( #172 ) );
#123 = EDGE_LOOP( '', ( #173, #174, #175, #176 ) );
#124 = AXIS2_PLACEMENT_3D( '', #177, #178, #179 );
#125 = SURFACE_SIDE_STYLE( '', ( #180 ) );
#126 = EDGE_LOOP( '', ( #181, #182, #183, #184 ) );
#127 = AXIS2_PLACEMENT_3D( '', #185, #186, #187 );
#128 = SURFACE_SIDE_STYLE( '', ( #188 ) );
#129 = EDGE_LOOP( '', ( #189, #190, #191, #192 ) );
#130 = AXIS2_PLACEMENT_3D( '', #193, #194, #195 );
#132 = SURFACE_STYLE_FILL_AREA( #196 );
#133 = ORIENTED_EDGE( '', *, *, #197, .T. );
#134 = ORIENTED_EDGE( '', *, *, #198, .T. );
#135 = ORIENTED_EDGE( '', *, *, #199, .T. );
#136 = ORIENTED_EDGE( '', *, *, #200, .T. );
#137 = ORIENTED_EDGE( '', *, *, #201, .T. );
#138 = ORIENTED_EDGE( '', *, *, #202, .T. );
#139 = CARTESIAN_POINT( '', ( -448.000000000000, 31.0000000000000, 116.000000000000 ) );
#140 = DIRECTION( '', ( 0.000000000000000, 0.000000000000000, 1.00000000000000 ) );
#141 = DIRECTION( '', ( 1.00000000000000, 0.000000000000000, 0.000000000000000 ) );
#142 = SURFACE_STYLE_FILL_AREA( #203 );
#143 = ORIENTED_EDGE( '', *, *, #204, .T. );
#144 = ORIENTED_EDGE( '', *, *, #205, .T. );
#145 = ORIENTED_EDGE( '', *, *, #206, .F. );
#146 = ORIENTED_EDGE( '', *, *, #207, .F. );
#147 = ORIENTED_EDGE( '', *, *, #208, .F. );
#148 = ORIENTED_EDGE( '', *, *, #209, .F. );
#149 = CARTESIAN_POINT( '', ( -448.000000000000, 31.0000000000000, 0.000000000000000 ) );
#150 = DIRECTION( '', ( 0.000000000000000, 0.000000000000000, 1.00000000000000 ) );
#151 = DIRECTION( '', ( 1.00000000000000, 0.000000000000000, 0.000000000000000 ) );
#152 = SURFACE_STYLE_FILL_AREA( #210 );
#153 = ORIENTED_EDGE( '', *, *, #198, .F. );
#154 = ORIENTED_EDGE( '', *, *, #205, .F. );
#155 = CARTESIAN_POINT( '', ( -365.000000000000, 5.00000000000000, 116.000000000000 ) );
#156 = DIRECTION( '', ( -0.000000000000000, -0.000000000000000, 1.00000000000000 ) );
#157 = DIRECTION( '', ( 0.000000000000000, -1.00000000000000, 0.000000000000000 ) );
#158 = SURFACE_STYLE_FILL_AREA( #211 );
#159 = ORIENTED_EDGE( '', *, *, #206, .T. );
#160 = ORIENTED_EDGE( '', *, *, #212, .F. );
#161 = ORIENTED_EDGE( '', *, *, #199, .F. );
#162 = ORIENTED_EDGE( '', *, *, #213, .T. );
#163 = CARTESIAN_POINT( '', ( 448.000000000000, 31.0000000000000, 116.000000000000 ) );
#164 = DIRECTION( '', ( -3.48493555441769E-017, -1.00000000000000, 0.000000000000000 ) );
#165 = DIRECTION( '', ( 1.00000000000000, -3.48493555441769E-017, 0.000000000000000 ) );
#166 = SURFACE_STYLE_FILL_AREA( #214 );
#167 = ORIENTED_EDGE( '', *, *, #197, .F. );
#168 = ORIENTED_EDGE( '', *, *, #204, .F. );
#169 = CARTESIAN_POINT( '', ( 365.000000000000, 5.00000000000008, 116.000000000000 ) );
#170 = DIRECTION( '', ( -0.000000000000000, -0.000000000000000, 1.00000000000000 ) );
#171 = DIRECTION( '', ( 0.000000000000000, -1.00000000000000, 0.000000000000000 ) );
#172 = SURFACE_STYLE_FILL_AREA( #215 );
#173 = ORIENTED_EDGE( '', *, *, #207, .T. );
#174 = ORIENTED_EDGE( '', *, *, #213, .F. );
#175 = ORIENTED_EDGE( '', *, *, #202, .F. );
#176 = ORIENTED_EDGE( '', *, *, #216, .T. );
#177 = CARTESIAN_POINT( '', ( 448.000000000000, -31.0000000000000, 116.000000000000 ) );
#178 = DIRECTION( '', ( -1.00000000000000, 0.000000000000000, 0.000000000000000 ) );
#179 = DIRECTION( '', ( 0.000000000000000, 0.000000000000000, 1.00000000000000 ) );
#180 = SURFACE_STYLE_FILL_AREA( #217 );
#181 = ORIENTED_EDGE( '', *, *, #208, .T. );
#182 = ORIENTED_EDGE( '', *, *, #216, .F. );
#183 = ORIENTED_EDGE( '', *, *, #201, .F. );
#184 = ORIENTED_EDGE( '', *, *, #218, .T. );
#185 = CARTESIAN_POINT( '', ( -448.000000000000, -31.0000000000000, 116.000000000000 ) );
#186 = DIRECTION( '', ( 5.80822592402949E-017, 1.00000000000000, 0.000000000000000 ) );
#187 = DIRECTION( '', ( -1.00000000000000, 5.80822592402949E-017, 0.000000000000000 ) );
#188 = SURFACE_STYLE_FILL_AREA( #219 );
#189 = ORIENTED_EDGE( '', *, *, #209, .T. );
#190 = ORIENTED_EDGE( '', *, *, #218, .F. );
#191 = ORIENTED_EDGE( '', *, *, #200, .F. );
#192 = ORIENTED_EDGE( '', *, *, #212, .T. );
#193 = CARTESIAN_POINT( '', ( -448.000000000000, 31.0000000000000, 116.000000000000 ) );
#194 = DIRECTION( '', ( 1.00000000000000, 0.000000000000000, 0.000000000000000 ) );
#195 = DIRECTION( '', ( 0.000000000000000, 0.000000000000000, -1.00000000000000 ) );
#196 = FILL_AREA_STYLE( '', ( #220 ) );
#197 = EDGE_CURVE( '', #221, #221, #222, .T. );
#198 = EDGE_CURVE( '', #223, #223, #224, .T. );
#199 = EDGE_CURVE( '', #225, #226, #227, .T. );
#200 = EDGE_CURVE( '', #226, #228, #229, .T. );
#201 = EDGE_CURVE( '', #228, #230, #231, .T. );
#202 = EDGE_CURVE( '', #230, #225, #232, .T. );
#203 = FILL_AREA_STYLE( '', ( #233 ) );
#204 = EDGE_CURVE( '', #234, #234, #235, .T. );
#205 = EDGE_CURVE( '', #236, #236, #237, .T. );
#206 = EDGE_CURVE( '', #238, #239, #240, .T. );
#207 = EDGE_CURVE( '', #241, #238, #242, .T. );
#208 = EDGE_CURVE( '', #243, #241, #244, .T. );
#209 = EDGE_CURVE( '', #239, #243, #245, .T. );
#210 = FILL_AREA_STYLE( '', ( #246 ) );
#211 = FILL_AREA_STYLE( '', ( #247 ) );
#212 = EDGE_CURVE( '', #226, #239, #248, .T. );
#213 = EDGE_CURVE( '', #225, #238, #249, .T. );
#214 = FILL_AREA_STYLE( '', ( #250 ) );
#215 = FILL_AREA_STYLE( '', ( #251 ) );
#216 = EDGE_CURVE( '', #230, #241, #252, .T. );
#217 = FILL_AREA_STYLE( '', ( #253 ) );
#218 = EDGE_CURVE( '', #228, #243, #254, .T. );
#219 = FILL_AREA_STYLE( '', ( #255 ) );
#220 = FILL_AREA_STYLE_COLOUR( '', #256 );
#221 = VERTEX_POINT( '', #257 );
#222 = CIRCLE( '', #258, 9.00000000000000 );
#223 = VERTEX_POINT( '', #259 );
#224 = CIRCLE( '', #260, 9.00000000000000 );
#225 = VERTEX_POINT( '', #261 );
#226 = VERTEX_POINT( '', #262 );
#227 = LINE( '', #263, #264 );
#228 = VERTEX_POINT( '', #265 );
#229 = LINE( '', #266, #267 );
#230 = VERTEX_POINT( '', #268 );
#231 = LINE( '', #269, #270 );
#232 = LINE( '', #271, #272 );
#233 = FILL_AREA_STYLE_COLOUR( '', #273 );
#234 = VERTEX_POINT( '', #274 );
#235 = CIRCLE( '', #275, 9.00000000000000 );
#236 = VERTEX_POINT( '', #276 );
#237 = CIRCLE( '', #277, 9.00000000000000 );
#238 = VERTEX_POINT( '', #278 );
#239 = VERTEX_POINT( '', #279 );
#240 = LINE( '', #280, #281 );
#241 = VERTEX_POINT( '', #282 );
#242 = LINE( '', #283, #284 );
#243 = VERTEX_POINT( '', #285 );
#244 = LINE( '', #286, #287 );
#245 = LINE( '', #288, #289 );
#246 = FILL_AREA_STYLE_COLOUR( '', #290 );
#247 = FILL_AREA_STYLE_COLOUR( '', #291 );
#248 = LINE( '', #292, #293 );
#249 = LINE( '', #294, #295 );
#250 = FILL_AREA_STYLE_COLOUR( '', #296 );
#251 = FILL_AREA_STYLE_COLOUR( '', #297 );
#252 = LINE( '', #298, #299 );
#253 = FILL_AREA_STYLE_COLOUR( '', #300 );
#254 = LINE( '', #301, #302 );
#255 = FILL_AREA_STYLE_COLOUR( '', #303 );
#256 = COLOUR_RGB( '', 0.752941191196442, 0.752941191196442, 0.752941191196442 );
#257 = CARTESIAN_POINT( '', ( 365.000000000000, -3.99999999999992, 116.000000000000 ) );
#258 = AXIS2_PLACEMENT_3D( '', #304, #305, #306 );
#259 = CARTESIAN_POINT( '', ( -365.000000000000, -4.00000000000000, 116.000000000000 ) );
#260 = AXIS2_PLACEMENT_3D( '', #307, #308, #309 );
#261 = CARTESIAN_POINT( '', ( 448.000000000000, 31.0000000000000, 116.000000000000 ) );
#262 = CARTESIAN_POINT( '', ( -448.000000000000, 31.0000000000000, 116.000000000000 ) );
#263 = CARTESIAN_POINT( '', ( 448.000000000000, 31.0000000000000, 116.000000000000 ) );
#264 = VECTOR( '', #310, 1000.00000000000 );
#265 = CARTESIAN_POINT( '', ( -448.000000000000, -31.0000000000000, 116.000000000000 ) );
#266 = CARTESIAN_POINT( '', ( -448.000000000000, 31.0000000000000, 116.000000000000 ) );
#267 = VECTOR( '', #311, 1000.00000000000 );
#268 = CARTESIAN_POINT( '', ( 448.000000000000, -31.0000000000000, 116.000000000000 ) );
#269 = CARTESIAN_POINT( '', ( -448.000000000000, -31.0000000000000, 116.000000000000 ) );
#270 = VECTOR( '', #312, 1000.00000000000 );
#271 = CARTESIAN_POINT( '', ( 448.000000000000, -31.0000000000000, 116.000000000000 ) );
#272 = VECTOR( '', #313, 1000.00000000000 );
#273 = COLOUR_RGB( '', 0.752941191196442, 0.752941191196442, 0.752941191196442 );
#274 = CARTESIAN_POINT( '', ( 374.000000000000, 5.00000000000008, 0.000000000000000 ) );
#275 = AXIS2_PLACEMENT_3D( '', #314, #315, #316 );
#276 = CARTESIAN_POINT( '', ( -356.000000000000, 5.00000000000000, 0.000000000000000 ) );
#277 = AXIS2_PLACEMENT_3D( '', #317, #318, #319 );
#278 = CARTESIAN_POINT( '', ( 448.000000000000, 31.0000000000000, 0.000000000000000 ) );
#279 = CARTESIAN_POINT( '', ( -448.000000000000, 31.0000000000000, 0.000000000000000 ) );
#280 = CARTESIAN_POINT( '', ( 448.000000000000, 31.0000000000000, 0.000000000000000 ) );
#281 = VECTOR( '', #320, 1000.00000000000 );
#282 = CARTESIAN_POINT( '', ( 448.000000000000, -31.0000000000000, 0.000000000000000 ) );
#283 = CARTESIAN_POINT( '', ( 448.000000000000, -31.0000000000000, 0.000000000000000 ) );
#284 = VECTOR( '', #321, 1000.00000000000 );
#285 = CARTESIAN_POINT( '', ( -448.000000000000, -31.0000000000000, 0.000000000000000 ) );
#286 = CARTESIAN_POINT( '', ( -448.000000000000, -31.0000000000000, 0.000000000000000 ) );
#287 = VECTOR( '', #322, 1000.00000000000 );
#288 = CARTESIAN_POINT( '', ( -448.000000000000, 31.0000000000000, 0.000000000000000 ) );
#289 = VECTOR( '', #323, 1000.00000000000 );
#290 = COLOUR_RGB( '', 0.752941191196442, 0.752941191196442, 0.752941191196442 );
#291 = COLOUR_RGB( '', 0.752941191196442, 0.752941191196442, 0.752941191196442 );
#292 = CARTESIAN_POINT( '', ( -448.000000000000, 31.0000000000000, 116.000000000000 ) );
#293 = VECTOR( '', #324, 1000.00000000000 );
#294 = CARTESIAN_POINT( '', ( 448.000000000000, 31.0000000000000, 116.000000000000 ) );
#295 = VECTOR( '', #325, 1000.00000000000 );
#296 = COLOUR_RGB( '', 0.752941191196442, 0.752941191196442, 0.752941191196442 );
#297 = COLOUR_RGB( '', 0.752941191196442, 0.752941191196442, 0.752941191196442 );
#298 = CARTESIAN_POINT( '', ( 448.000000000000, -31.0000000000000, 116.000000000000 ) );
#299 = VECTOR( '', #326, 1000.00000000000 );
#300 = COLOUR_RGB( '', 0.752941191196442, 0.752941191196442, 0.752941191196442 );
#301 = CARTESIAN_POINT( '', ( -448.000000000000, -31.0000000000000, 116.000000000000 ) );
#302 = VECTOR( '', #327, 1000.00000000000 );
#303 = COLOUR_RGB( '', 0.752941191196442, 0.752941191196442, 0.752941191196442 );
#304 = CARTESIAN_POINT( '', ( 365.000000000000, 5.00000000000008, 116.000000000000 ) );
#305 = DIRECTION( '', ( 0.000000000000000, 0.000000000000000, -1.00000000000000 ) );
#306 = DIRECTION( '', ( 0.000000000000000, -1.00000000000000, 0.000000000000000 ) );
#307 = CARTESIAN_POINT( '', ( -365.000000000000, 5.00000000000000, 116.000000000000 ) );
#308 = DIRECTION( '', ( 0.000000000000000, 0.000000000000000, -1.00000000000000 ) );
#309 = DIRECTION( '', ( 0.000000000000000, -1.00000000000000, 0.000000000000000 ) );
#310 = DIRECTION( '', ( -1.00000000000000, 3.48493555441769E-017, 0.000000000000000 ) );
#311 = DIRECTION( '', ( 0.000000000000000, -1.00000000000000, 0.000000000000000 ) );
#312 = DIRECTION( '', ( 1.00000000000000, -5.80822592402949E-017, 0.000000000000000 ) );
#313 = DIRECTION( '', ( 0.000000000000000, 1.00000000000000, 0.000000000000000 ) );
#314 = CARTESIAN_POINT( '', ( 365.000000000000, 5.00000000000008, 0.000000000000000 ) );
#315 = DIRECTION( '', ( 0.000000000000000, 0.000000000000000, 1.00000000000000 ) );
#316 = DIRECTION( '', ( 1.00000000000000, 0.000000000000000, 0.000000000000000 ) );
#317 = CARTESIAN_POINT( '', ( -365.000000000000, 5.00000000000000, 0.000000000000000 ) );
#318 = DIRECTION( '', ( 0.000000000000000, 0.000000000000000, 1.00000000000000 ) );
#319 = DIRECTION( '', ( 1.00000000000000, 0.000000000000000, 0.000000000000000 ) );
#320 = DIRECTION( '', ( -1.00000000000000, 3.48493555441769E-017, 0.000000000000000 ) );
#321 = DIRECTION( '', ( 0.000000000000000, 1.00000000000000, 0.000000000000000 ) );
#322 = DIRECTION( '', ( 1.00000000000000, -5.80822592402949E-017, 0.000000000000000 ) );
#323 = DIRECTION( '', ( 0.000000000000000, -1.00000000000000, 0.000000000000000 ) );
#324 = DIRECTION( '', ( 0.000000000000000, 0.000000000000000, -1.00000000000000 ) );
#325 = DIRECTION( '', ( 0.000000000000000, 0.000000000000000, -1.00000000000000 ) );
#326 = DIRECTION( '', ( 0.000000000000000, 0.000000000000000, -1.00000000000000 ) );
#327 = DIRECTION( '', ( 0.000000000000000, 0.000000000000000, -1.00000000000000 ) );
ENDSEC;
END-ISO-10303-21;
