ISO-10303-21;
HEADER;
FILE_DESCRIPTION( ( 'Unknown' ), '1' );
FILE_NAME( 'M:/Piezas_3D/Placas_Par/G1 y G2/OS_G1_496x496x136_.stp', 'Unknown', ( 'Unknown' ), ( 'Unknown' ), 'PSStep 16.0.42', 'Unknown', '  ' );
FILE_SCHEMA( ( 'AUTOMOTIVE_DESIGN { 1 0 10303 214 1 1 1 1 }' ) );
ENDSEC;
DATA;
#1 = MECHANICAL_DESIGN_GEOMETRIC_PRESENTATION_REPRESENTATION( ' ', ( #10, #11, #12, #13, #14, #15, #16, #17 ), #6 );
#2 = PRODUCT_DEFINITION_CONTEXT( '', #18, 'design' );
#3 = APPLICATION_PROTOCOL_DEFINITION( 'international standard', 'automotive_design', 2001, #18 );
#4 = PRODUCT_CATEGORY_RELATIONSHIP( 'NONE', 'NONE', #19, #20 );
#5 = SHAPE_DEFINITION_REPRESENTATION( #21, #22 );
#6 =  ( GEOMETRIC_REPRESENTATION_CONTEXT( 3 )GLOBAL_UNCERTAINTY_ASSIGNED_CONTEXT( ( #25 ) )GLOBAL_UNIT_ASSIGNED_CONTEXT( ( #27, #28, #29 ) )REPRESENTATION_CONTEXT( 'NONE', 'WORKSPACE' ) );
#10 = STYLED_ITEM( '', ( #31 ), #32 );
#11 = STYLED_ITEM( '', ( #33 ), #34 );
#12 = STYLED_ITEM( '', ( #35 ), #36 );
#13 = STYLED_ITEM( '', ( #37 ), #38 );
#14 = STYLED_ITEM( '', ( #39 ), #40 );
#15 = STYLED_ITEM( '', ( #41 ), #42 );
#16 = STYLED_ITEM( '', ( #43 ), #44 );
#17 = STYLED_ITEM( '', ( #45 ), #46 );
#18 = APPLICATION_CONTEXT( 'core data for automotive mechanical design processes' );
#19 = PRODUCT_CATEGORY( 'part', 'NONE' );
#20 = PRODUCT_RELATED_PRODUCT_CATEGORY( 'detail', ' ', ( #47 ) );
#21 = PRODUCT_DEFINITION_SHAPE( 'NONE', 'NONE', #48 );
#22 = ADVANCED_BREP_SHAPE_REPRESENTATION( '1', ( #49, #50 ), #6 );
#25 = UNCERTAINTY_MEASURE_WITH_UNIT( LENGTH_MEASURE( 0.00100000000000000 ), #27, '', '' );
#27 =  ( CONVERSION_BASED_UNIT( 'MILLIMETRE', #53 )LENGTH_UNIT(  )NAMED_UNIT( #56 ) );
#28 =  ( NAMED_UNIT( #58 )PLANE_ANGLE_UNIT(  )SI_UNIT( $, .RADIAN. ) );
#29 =  ( NAMED_UNIT( #58 )SI_UNIT( $, .STERADIAN. )SOLID_ANGLE_UNIT(  ) );
#31 = PRESENTATION_STYLE_ASSIGNMENT( ( #64 ) );
#32 = ADVANCED_FACE( '', ( #65, #66, #67 ), #68, .T. );
#33 = PRESENTATION_STYLE_ASSIGNMENT( ( #69 ) );
#34 = ADVANCED_FACE( '', ( #70, #71 ), #72, .F. );
#35 = PRESENTATION_STYLE_ASSIGNMENT( ( #73 ) );
#36 = ADVANCED_FACE( '', ( #74 ), #75, .F. );
#37 = PRESENTATION_STYLE_ASSIGNMENT( ( #76 ) );
#38 = ADVANCED_FACE( '', ( #77 ), #78, .F. );
#39 = PRESENTATION_STYLE_ASSIGNMENT( ( #79 ) );
#40 = ADVANCED_FACE( '', ( #80 ), #81, .F. );
#41 = PRESENTATION_STYLE_ASSIGNMENT( ( #82 ) );
#42 = ADVANCED_FACE( '', ( #83 ), #84, .F. );
#43 = PRESENTATION_STYLE_ASSIGNMENT( ( #85 ) );
#44 = ADVANCED_FACE( '', ( #86, #87, #88 ), #89, .F. );
#45 = PRESENTATION_STYLE_ASSIGNMENT( ( #90 ) );
#46 = ADVANCED_FACE( '', ( #91, #92 ), #93, .F. );
#47 = PRODUCT( '1', '1', 'PART-1-DESC', ( #94 ) );
#48 = PRODUCT_DEFINITION( 'NONE', 'NONE', #95, #2 );
#49 = MANIFOLD_SOLID_BREP( '1', #96 );
#50 = AXIS2_PLACEMENT_3D( '', #97, #98, #99 );
#53 = LENGTH_MEASURE_WITH_UNIT( LENGTH_MEASURE( 1.00000000000000 ), #100 );
#56 = DIMENSIONAL_EXPONENTS( 1.00000000000000, 0.000000000000000, 0.000000000000000, 0.000000000000000, 0.000000000000000, 0.000000000000000, 0.000000000000000 );
#58 = DIMENSIONAL_EXPONENTS( 0.000000000000000, 0.000000000000000, 0.000000000000000, 0.000000000000000, 0.000000000000000, 0.000000000000000, 0.000000000000000 );
#64 = SURFACE_STYLE_USAGE( .BOTH., #101 );
#65 = FACE_BOUND( '', #102, .T. );
#66 = FACE_BOUND( '', #103, .T. );
#67 = FACE_OUTER_BOUND( '', #104, .T. );
#68 = PLANE( '', #105 );
#69 = SURFACE_STYLE_USAGE( .BOTH., #106 );
#70 = FACE_OUTER_BOUND( '', #107, .T. );
#71 = FACE_OUTER_BOUND( '', #108, .T. );
#72 = CYLINDRICAL_SURFACE( '', #109, 9.00000000000000 );
#73 = SURFACE_STYLE_USAGE( .BOTH., #110 );
#74 = FACE_OUTER_BOUND( '', #111, .T. );
#75 = PLANE( '', #112 );
#76 = SURFACE_STYLE_USAGE( .BOTH., #113 );
#77 = FACE_OUTER_BOUND( '', #114, .T. );
#78 = PLANE( '', #115 );
#79 = SURFACE_STYLE_USAGE( .BOTH., #116 );
#80 = FACE_OUTER_BOUND( '', #117, .T. );
#81 = PLANE( '', #118 );
#82 = SURFACE_STYLE_USAGE( .BOTH., #119 );
#83 = FACE_OUTER_BOUND( '', #120, .T. );
#84 = PLANE( '', #121 );
#85 = SURFACE_STYLE_USAGE( .BOTH., #122 );
#86 = FACE_BOUND( '', #123, .T. );
#87 = FACE_BOUND( '', #124, .T. );
#88 = FACE_OUTER_BOUND( '', #125, .T. );
#89 = PLANE( '', #126 );
#90 = SURFACE_STYLE_USAGE( .BOTH., #127 );
#91 = FACE_OUTER_BOUND( '', #128, .T. );
#92 = FACE_OUTER_BOUND( '', #129, .T. );
#93 = CYLINDRICAL_SURFACE( '', #130, 9.00000000000000 );
#94 = PRODUCT_CONTEXT( '', #18, 'mechanical' );
#95 = PRODUCT_DEFINITION_FORMATION_WITH_SPECIFIED_SOURCE( ' ', 'NONE', #47, .NOT_KNOWN. );
#96 = CLOSED_SHELL( '', ( #34, #44, #38, #32, #36, #42, #40, #46 ) );
#97 = CARTESIAN_POINT( '', ( 0.000000000000000, 0.000000000000000, 0.000000000000000 ) );
#98 = DIRECTION( '', ( 0.000000000000000, 0.000000000000000, 1.00000000000000 ) );
#99 = DIRECTION( '', ( 1.00000000000000, 0.000000000000000, 0.000000000000000 ) );
#100 =  ( LENGTH_UNIT(  )NAMED_UNIT( #56 )SI_UNIT( .MILLI., .METRE. ) );
#101 = SURFACE_SIDE_STYLE( '', ( #132 ) );
#102 = EDGE_LOOP( '', ( #133 ) );
#103 = EDGE_LOOP( '', ( #134 ) );
#104 = EDGE_LOOP( '', ( #135, #136, #137, #138 ) );
#105 = AXIS2_PLACEMENT_3D( '', #139, #140, #141 );
#106 = SURFACE_SIDE_STYLE( '', ( #142 ) );
#107 = EDGE_LOOP( '', ( #143 ) );
#108 = EDGE_LOOP( '', ( #144 ) );
#109 = AXIS2_PLACEMENT_3D( '', #145, #146, #147 );
#110 = SURFACE_SIDE_STYLE( '', ( #148 ) );
#111 = EDGE_LOOP( '', ( #149, #150, #151, #152 ) );
#112 = AXIS2_PLACEMENT_3D( '', #153, #154, #155 );
#113 = SURFACE_SIDE_STYLE( '', ( #156 ) );
#114 = EDGE_LOOP( '', ( #157, #158, #159, #160 ) );
#115 = AXIS2_PLACEMENT_3D( '', #161, #162, #163 );
#116 = SURFACE_SIDE_STYLE( '', ( #164 ) );
#117 = EDGE_LOOP( '', ( #165, #166, #167, #168 ) );
#118 = AXIS2_PLACEMENT_3D( '', #169, #170, #171 );
#119 = SURFACE_SIDE_STYLE( '', ( #172 ) );
#120 = EDGE_LOOP( '', ( #173, #174, #175, #176 ) );
#121 = AXIS2_PLACEMENT_3D( '', #177, #178, #179 );
#122 = SURFACE_SIDE_STYLE( '', ( #180 ) );
#123 = EDGE_LOOP( '', ( #181 ) );
#124 = EDGE_LOOP( '', ( #182 ) );
#125 = EDGE_LOOP( '', ( #183, #184, #185, #186 ) );
#126 = AXIS2_PLACEMENT_3D( '', #187, #188, #189 );
#127 = SURFACE_SIDE_STYLE( '', ( #190 ) );
#128 = EDGE_LOOP( '', ( #191 ) );
#129 = EDGE_LOOP( '', ( #192 ) );
#130 = AXIS2_PLACEMENT_3D( '', #193, #194, #195 );
#132 = SURFACE_STYLE_FILL_AREA( #196 );
#133 = ORIENTED_EDGE( '', *, *, #197, .T. );
#134 = ORIENTED_EDGE( '', *, *, #198, .T. );
#135 = ORIENTED_EDGE( '', *, *, #199, .T. );
#136 = ORIENTED_EDGE( '', *, *, #200, .T. );
#137 = ORIENTED_EDGE( '', *, *, #201, .T. );
#138 = ORIENTED_EDGE( '', *, *, #202, .T. );
#139 = CARTESIAN_POINT( '', ( -248.000000000000, 31.0000000000000, 136.000000000000 ) );
#140 = DIRECTION( '', ( 0.000000000000000, 0.000000000000000, 1.00000000000000 ) );
#141 = DIRECTION( '', ( 1.00000000000000, 0.000000000000000, 0.000000000000000 ) );
#142 = SURFACE_STYLE_FILL_AREA( #203 );
#143 = ORIENTED_EDGE( '', *, *, #197, .F. );
#144 = ORIENTED_EDGE( '', *, *, #204, .F. );
#145 = CARTESIAN_POINT( '', ( 165.000000000000, 5.00000000000006, 136.000000000000 ) );
#146 = DIRECTION( '', ( -0.000000000000000, -0.000000000000000, 1.00000000000000 ) );
#147 = DIRECTION( '', ( 0.000000000000000, -1.00000000000000, 0.000000000000000 ) );
#148 = SURFACE_STYLE_FILL_AREA( #205 );
#149 = ORIENTED_EDGE( '', *, *, #206, .T. );
#150 = ORIENTED_EDGE( '', *, *, #207, .F. );
#151 = ORIENTED_EDGE( '', *, *, #201, .F. );
#152 = ORIENTED_EDGE( '', *, *, #208, .T. );
#153 = CARTESIAN_POINT( '', ( -248.000000000000, -31.0000000000000, 136.000000000000 ) );
#154 = DIRECTION( '', ( 8.39382327085552E-017, 1.00000000000000, 0.000000000000000 ) );
#155 = DIRECTION( '', ( -1.00000000000000, 8.39382327085552E-017, 0.000000000000000 ) );
#156 = SURFACE_STYLE_FILL_AREA( #209 );
#157 = ORIENTED_EDGE( '', *, *, #210, .T. );
#158 = ORIENTED_EDGE( '', *, *, #211, .F. );
#159 = ORIENTED_EDGE( '', *, *, #202, .F. );
#160 = ORIENTED_EDGE( '', *, *, #207, .T. );
#161 = CARTESIAN_POINT( '', ( 248.000000000000, -31.0000000000000, 136.000000000000 ) );
#162 = DIRECTION( '', ( -1.00000000000000, 0.000000000000000, 0.000000000000000 ) );
#163 = DIRECTION( '', ( 0.000000000000000, 0.000000000000000, 1.00000000000000 ) );
#164 = SURFACE_STYLE_FILL_AREA( #212 );
#165 = ORIENTED_EDGE( '', *, *, #213, .T. );
#166 = ORIENTED_EDGE( '', *, *, #208, .F. );
#167 = ORIENTED_EDGE( '', *, *, #200, .F. );
#168 = ORIENTED_EDGE( '', *, *, #214, .T. );
#169 = CARTESIAN_POINT( '', ( -248.000000000000, 31.0000000000000, 136.000000000000 ) );
#170 = DIRECTION( '', ( 1.00000000000000, 0.000000000000000, 0.000000000000000 ) );
#171 = DIRECTION( '', ( 0.000000000000000, 0.000000000000000, -1.00000000000000 ) );
#172 = SURFACE_STYLE_FILL_AREA( #215 );
#173 = ORIENTED_EDGE( '', *, *, #216, .T. );
#174 = ORIENTED_EDGE( '', *, *, #214, .F. );
#175 = ORIENTED_EDGE( '', *, *, #199, .F. );
#176 = ORIENTED_EDGE( '', *, *, #211, .T. );
#177 = CARTESIAN_POINT( '', ( 248.000000000000, 31.0000000000000, 136.000000000000 ) );
#178 = DIRECTION( '', ( 0.000000000000000, -1.00000000000000, 0.000000000000000 ) );
#179 = DIRECTION( '', ( 0.000000000000000, 0.000000000000000, -1.00000000000000 ) );
#180 = SURFACE_STYLE_FILL_AREA( #217 );
#181 = ORIENTED_EDGE( '', *, *, #204, .T. );
#182 = ORIENTED_EDGE( '', *, *, #218, .T. );
#183 = ORIENTED_EDGE( '', *, *, #216, .F. );
#184 = ORIENTED_EDGE( '', *, *, #210, .F. );
#185 = ORIENTED_EDGE( '', *, *, #206, .F. );
#186 = ORIENTED_EDGE( '', *, *, #213, .F. );
#187 = CARTESIAN_POINT( '', ( -248.000000000000, 31.0000000000000, 0.000000000000000 ) );
#188 = DIRECTION( '', ( 0.000000000000000, 0.000000000000000, 1.00000000000000 ) );
#189 = DIRECTION( '', ( 1.00000000000000, 0.000000000000000, 0.000000000000000 ) );
#190 = SURFACE_STYLE_FILL_AREA( #219 );
#191 = ORIENTED_EDGE( '', *, *, #198, .F. );
#192 = ORIENTED_EDGE( '', *, *, #218, .F. );
#193 = CARTESIAN_POINT( '', ( -165.000000000000, 5.00000000000000, 136.000000000000 ) );
#194 = DIRECTION( '', ( -0.000000000000000, -0.000000000000000, 1.00000000000000 ) );
#195 = DIRECTION( '', ( 0.000000000000000, -1.00000000000000, 0.000000000000000 ) );
#196 = FILL_AREA_STYLE( '', ( #220 ) );
#197 = EDGE_CURVE( '', #221, #221, #222, .T. );
#198 = EDGE_CURVE( '', #223, #223, #224, .T. );
#199 = EDGE_CURVE( '', #225, #226, #227, .T. );
#200 = EDGE_CURVE( '', #226, #228, #229, .T. );
#201 = EDGE_CURVE( '', #228, #230, #231, .T. );
#202 = EDGE_CURVE( '', #230, #225, #232, .T. );
#203 = FILL_AREA_STYLE( '', ( #233 ) );
#204 = EDGE_CURVE( '', #234, #234, #235, .T. );
#205 = FILL_AREA_STYLE( '', ( #236 ) );
#206 = EDGE_CURVE( '', #237, #238, #239, .T. );
#207 = EDGE_CURVE( '', #230, #238, #240, .T. );
#208 = EDGE_CURVE( '', #228, #237, #241, .T. );
#209 = FILL_AREA_STYLE( '', ( #242 ) );
#210 = EDGE_CURVE( '', #238, #243, #244, .T. );
#211 = EDGE_CURVE( '', #225, #243, #245, .T. );
#212 = FILL_AREA_STYLE( '', ( #246 ) );
#213 = EDGE_CURVE( '', #247, #237, #248, .T. );
#214 = EDGE_CURVE( '', #226, #247, #249, .T. );
#215 = FILL_AREA_STYLE( '', ( #250 ) );
#216 = EDGE_CURVE( '', #243, #247, #251, .T. );
#217 = FILL_AREA_STYLE( '', ( #252 ) );
#218 = EDGE_CURVE( '', #253, #253, #254, .T. );
#219 = FILL_AREA_STYLE( '', ( #255 ) );
#220 = FILL_AREA_STYLE_COLOUR( '', #256 );
#221 = VERTEX_POINT( '', #257 );
#222 = CIRCLE( '', #258, 9.00000000000000 );
#223 = VERTEX_POINT( '', #259 );
#224 = CIRCLE( '', #260, 9.00000000000000 );
#225 = VERTEX_POINT( '', #261 );
#226 = VERTEX_POINT( '', #262 );
#227 = LINE( '', #263, #264 );
#228 = VERTEX_POINT( '', #265 );
#229 = LINE( '', #266, #267 );
#230 = VERTEX_POINT( '', #268 );
#231 = LINE( '', #269, #270 );
#232 = LINE( '', #271, #272 );
#233 = FILL_AREA_STYLE_COLOUR( '', #273 );
#234 = VERTEX_POINT( '', #274 );
#235 = CIRCLE( '', #275, 9.00000000000000 );
#236 = FILL_AREA_STYLE_COLOUR( '', #276 );
#237 = VERTEX_POINT( '', #277 );
#238 = VERTEX_POINT( '', #278 );
#239 = LINE( '', #279, #280 );
#240 = LINE( '', #281, #282 );
#241 = LINE( '', #283, #284 );
#242 = FILL_AREA_STYLE_COLOUR( '', #285 );
#243 = VERTEX_POINT( '', #286 );
#244 = LINE( '', #287, #288 );
#245 = LINE( '', #289, #290 );
#246 = FILL_AREA_STYLE_COLOUR( '', #291 );
#247 = VERTEX_POINT( '', #292 );
#248 = LINE( '', #293, #294 );
#249 = LINE( '', #295, #296 );
#250 = FILL_AREA_STYLE_COLOUR( '', #297 );
#251 = LINE( '', #298, #299 );
#252 = FILL_AREA_STYLE_COLOUR( '', #300 );
#253 = VERTEX_POINT( '', #301 );
#254 = CIRCLE( '', #302, 9.00000000000000 );
#255 = FILL_AREA_STYLE_COLOUR( '', #303 );
#256 = COLOUR_RGB( '', 0.752941191196442, 0.752941191196442, 0.752941191196442 );
#257 = CARTESIAN_POINT( '', ( 165.000000000000, -3.99999999999994, 136.000000000000 ) );
#258 = AXIS2_PLACEMENT_3D( '', #304, #305, #306 );
#259 = CARTESIAN_POINT( '', ( -165.000000000000, -4.00000000000000, 136.000000000000 ) );
#260 = AXIS2_PLACEMENT_3D( '', #307, #308, #309 );
#261 = CARTESIAN_POINT( '', ( 248.000000000000, 31.0000000000000, 136.000000000000 ) );
#262 = CARTESIAN_POINT( '', ( -248.000000000000, 31.0000000000000, 136.000000000000 ) );
#263 = CARTESIAN_POINT( '', ( 248.000000000000, 31.0000000000000, 136.000000000000 ) );
#264 = VECTOR( '', #310, 1000.00000000000 );
#265 = CARTESIAN_POINT( '', ( -248.000000000000, -31.0000000000000, 136.000000000000 ) );
#266 = CARTESIAN_POINT( '', ( -248.000000000000, 31.0000000000000, 136.000000000000 ) );
#267 = VECTOR( '', #311, 1000.00000000000 );
#268 = CARTESIAN_POINT( '', ( 248.000000000000, -31.0000000000000, 136.000000000000 ) );
#269 = CARTESIAN_POINT( '', ( -248.000000000000, -31.0000000000000, 136.000000000000 ) );
#270 = VECTOR( '', #312, 1000.00000000000 );
#271 = CARTESIAN_POINT( '', ( 248.000000000000, -31.0000000000000, 136.000000000000 ) );
#272 = VECTOR( '', #313, 1000.00000000000 );
#273 = COLOUR_RGB( '', 0.752941191196442, 0.752941191196442, 0.752941191196442 );
#274 = CARTESIAN_POINT( '', ( 174.000000000000, 5.00000000000006, 0.000000000000000 ) );
#275 = AXIS2_PLACEMENT_3D( '', #314, #315, #316 );
#276 = COLOUR_RGB( '', 0.752941191196442, 0.752941191196442, 0.752941191196442 );
#277 = CARTESIAN_POINT( '', ( -248.000000000000, -31.0000000000000, 0.000000000000000 ) );
#278 = CARTESIAN_POINT( '', ( 248.000000000000, -31.0000000000000, 0.000000000000000 ) );
#279 = CARTESIAN_POINT( '', ( -248.000000000000, -31.0000000000000, 0.000000000000000 ) );
#280 = VECTOR( '', #317, 1000.00000000000 );
#281 = CARTESIAN_POINT( '', ( 248.000000000000, -31.0000000000000, 136.000000000000 ) );
#282 = VECTOR( '', #318, 1000.00000000000 );
#283 = CARTESIAN_POINT( '', ( -248.000000000000, -31.0000000000000, 136.000000000000 ) );
#284 = VECTOR( '', #319, 1000.00000000000 );
#285 = COLOUR_RGB( '', 0.752941191196442, 0.752941191196442, 0.752941191196442 );
#286 = CARTESIAN_POINT( '', ( 248.000000000000, 31.0000000000000, 0.000000000000000 ) );
#287 = CARTESIAN_POINT( '', ( 248.000000000000, -31.0000000000000, 0.000000000000000 ) );
#288 = VECTOR( '', #320, 1000.00000000000 );
#289 = CARTESIAN_POINT( '', ( 248.000000000000, 31.0000000000000, 136.000000000000 ) );
#290 = VECTOR( '', #321, 1000.00000000000 );
#291 = COLOUR_RGB( '', 0.752941191196442, 0.752941191196442, 0.752941191196442 );
#292 = CARTESIAN_POINT( '', ( -248.000000000000, 31.0000000000000, 0.000000000000000 ) );
#293 = CARTESIAN_POINT( '', ( -248.000000000000, 31.0000000000000, 0.000000000000000 ) );
#294 = VECTOR( '', #322, 1000.00000000000 );
#295 = CARTESIAN_POINT( '', ( -248.000000000000, 31.0000000000000, 136.000000000000 ) );
#296 = VECTOR( '', #323, 1000.00000000000 );
#297 = COLOUR_RGB( '', 0.752941191196442, 0.752941191196442, 0.752941191196442 );
#298 = CARTESIAN_POINT( '', ( 248.000000000000, 31.0000000000000, 0.000000000000000 ) );
#299 = VECTOR( '', #324, 1000.00000000000 );
#300 = COLOUR_RGB( '', 0.752941191196442, 0.752941191196442, 0.752941191196442 );
#301 = CARTESIAN_POINT( '', ( -156.000000000000, 5.00000000000000, 0.000000000000000 ) );
#302 = AXIS2_PLACEMENT_3D( '', #325, #326, #327 );
#303 = COLOUR_RGB( '', 0.752941191196442, 0.752941191196442, 0.752941191196442 );
#304 = CARTESIAN_POINT( '', ( 165.000000000000, 5.00000000000006, 136.000000000000 ) );
#305 = DIRECTION( '', ( 0.000000000000000, 0.000000000000000, -1.00000000000000 ) );
#306 = DIRECTION( '', ( 0.000000000000000, -1.00000000000000, 0.000000000000000 ) );
#307 = CARTESIAN_POINT( '', ( -165.000000000000, 5.00000000000000, 136.000000000000 ) );
#308 = DIRECTION( '', ( 0.000000000000000, 0.000000000000000, -1.00000000000000 ) );
#309 = DIRECTION( '', ( 0.000000000000000, -1.00000000000000, 0.000000000000000 ) );
#310 = DIRECTION( '', ( -1.00000000000000, 0.000000000000000, 0.000000000000000 ) );
#311 = DIRECTION( '', ( 0.000000000000000, -1.00000000000000, 0.000000000000000 ) );
#312 = DIRECTION( '', ( 1.00000000000000, -8.39382327085552E-017, 0.000000000000000 ) );
#313 = DIRECTION( '', ( 0.000000000000000, 1.00000000000000, 0.000000000000000 ) );
#314 = CARTESIAN_POINT( '', ( 165.000000000000, 5.00000000000006, 0.000000000000000 ) );
#315 = DIRECTION( '', ( 0.000000000000000, 0.000000000000000, 1.00000000000000 ) );
#316 = DIRECTION( '', ( 1.00000000000000, 0.000000000000000, 0.000000000000000 ) );
#317 = DIRECTION( '', ( 1.00000000000000, -8.39382327085552E-017, 0.000000000000000 ) );
#318 = DIRECTION( '', ( 0.000000000000000, 0.000000000000000, -1.00000000000000 ) );
#319 = DIRECTION( '', ( 0.000000000000000, 0.000000000000000, -1.00000000000000 ) );
#320 = DIRECTION( '', ( 0.000000000000000, 1.00000000000000, 0.000000000000000 ) );
#321 = DIRECTION( '', ( 0.000000000000000, 0.000000000000000, -1.00000000000000 ) );
#322 = DIRECTION( '', ( 0.000000000000000, -1.00000000000000, 0.000000000000000 ) );
#323 = DIRECTION( '', ( 0.000000000000000, 0.000000000000000, -1.00000000000000 ) );
#324 = DIRECTION( '', ( -1.00000000000000, 0.000000000000000, 0.000000000000000 ) );
#325 = CARTESIAN_POINT( '', ( -165.000000000000, 5.00000000000000, 0.000000000000000 ) );
#326 = DIRECTION( '', ( 0.000000000000000, 0.000000000000000, 1.00000000000000 ) );
#327 = DIRECTION( '', ( 1.00000000000000, 0.000000000000000, 0.000000000000000 ) );
ENDSEC;
END-ISO-10303-21;
