ISO-10303-21;
HEADER;
FILE_DESCRIPTION( ( 'Unknown' ), '1' );
FILE_NAME( 'M:/Piezas_3D/Placas_Par/G1 y G2/OS_G1_496x596x136_.stp', 'Unknown', ( 'Unknown' ), ( 'Unknown' ), 'PSStep 16.0.42', 'Unknown', '  ' );
FILE_SCHEMA( ( 'AUTOMOTIVE_DESIGN { 1 0 10303 214 1 1 1 1 }' ) );
ENDSEC;
DATA;
#1 = MECHANICAL_DESIGN_GEOMETRIC_PRESENTATION_REPRESENTATION( ' ', ( #10, #11, #12, #13, #14, #15, #16, #17 ), #6 );
#2 = PRODUCT_DEFINITION_CONTEXT( '', #18, 'design' );
#3 = APPLICATION_PROTOCOL_DEFINITION( 'international standard', 'automotive_design', 2001, #18 );
#4 = PRODUCT_CATEGORY_RELATIONSHIP( 'NONE', 'NONE', #19, #20 );
#5 = SHAPE_DEFINITION_REPRESENTATION( #21, #22 );
#6 =  ( GEOMETRIC_REPRESENTATION_CONTEXT( 3 )GLOBAL_UNCERTAINTY_ASSIGNED_CONTEXT( ( #25 ) )GLOBAL_UNIT_ASSIGNED_CONTEXT( ( #27, #28, #29 ) )REPRESENTATION_CONTEXT( 'NONE', 'WORKSPACE' ) );
#10 = STYLED_ITEM( '', ( #31 ), #32 );
#11 = STYLED_ITEM( '', ( #33 ), #34 );
#12 = STYLED_ITEM( '', ( #35 ), #36 );
#13 = STYLED_ITEM( '', ( #37 ), #38 );
#14 = STYLED_ITEM( '', ( #39 ), #40 );
#15 = STYLED_ITEM( '', ( #41 ), #42 );
#16 = STYLED_ITEM( '', ( #43 ), #44 );
#17 = STYLED_ITEM( '', ( #45 ), #46 );
#18 = APPLICATION_CONTEXT( 'core data for automotive mechanical design processes' );
#19 = PRODUCT_CATEGORY( 'part', 'NONE' );
#20 = PRODUCT_RELATED_PRODUCT_CATEGORY( 'detail', ' ', ( #47 ) );
#21 = PRODUCT_DEFINITION_SHAPE( 'NONE', 'NONE', #48 );
#22 = ADVANCED_BREP_SHAPE_REPRESENTATION( '1', ( #49, #50 ), #6 );
#25 = UNCERTAINTY_MEASURE_WITH_UNIT( LENGTH_MEASURE( 0.00100000000000000 ), #27, '', '' );
#27 =  ( CONVERSION_BASED_UNIT( 'MILLIMETRE', #53 )LENGTH_UNIT(  )NAMED_UNIT( #56 ) );
#28 =  ( NAMED_UNIT( #58 )PLANE_ANGLE_UNIT(  )SI_UNIT( $, .RADIAN. ) );
#29 =  ( NAMED_UNIT( #58 )SI_UNIT( $, .STERADIAN. )SOLID_ANGLE_UNIT(  ) );
#31 = PRESENTATION_STYLE_ASSIGNMENT( ( #64 ) );
#32 = ADVANCED_FACE( '', ( #65, #66 ), #67, .F. );
#33 = PRESENTATION_STYLE_ASSIGNMENT( ( #68 ) );
#34 = ADVANCED_FACE( '', ( #69 ), #70, .F. );
#35 = PRESENTATION_STYLE_ASSIGNMENT( ( #71 ) );
#36 = ADVANCED_FACE( '', ( #72 ), #73, .F. );
#37 = PRESENTATION_STYLE_ASSIGNMENT( ( #74 ) );
#38 = ADVANCED_FACE( '', ( #75, #76 ), #77, .F. );
#39 = PRESENTATION_STYLE_ASSIGNMENT( ( #78 ) );
#40 = ADVANCED_FACE( '', ( #79 ), #80, .F. );
#41 = PRESENTATION_STYLE_ASSIGNMENT( ( #81 ) );
#42 = ADVANCED_FACE( '', ( #82, #83, #84 ), #85, .T. );
#43 = PRESENTATION_STYLE_ASSIGNMENT( ( #86 ) );
#44 = ADVANCED_FACE( '', ( #87, #88, #89 ), #90, .F. );
#45 = PRESENTATION_STYLE_ASSIGNMENT( ( #91 ) );
#46 = ADVANCED_FACE( '', ( #92 ), #93, .F. );
#47 = PRODUCT( '1', '1', 'PART-1-DESC', ( #94 ) );
#48 = PRODUCT_DEFINITION( 'NONE', 'NONE', #95, #2 );
#49 = MANIFOLD_SOLID_BREP( '1', #96 );
#50 = AXIS2_PLACEMENT_3D( '', #97, #98, #99 );
#53 = LENGTH_MEASURE_WITH_UNIT( LENGTH_MEASURE( 1.00000000000000 ), #100 );
#56 = DIMENSIONAL_EXPONENTS( 1.00000000000000, 0.000000000000000, 0.000000000000000, 0.000000000000000, 0.000000000000000, 0.000000000000000, 0.000000000000000 );
#58 = DIMENSIONAL_EXPONENTS( 0.000000000000000, 0.000000000000000, 0.000000000000000, 0.000000000000000, 0.000000000000000, 0.000000000000000, 0.000000000000000 );
#64 = SURFACE_STYLE_USAGE( .BOTH., #101 );
#65 = FACE_OUTER_BOUND( '', #102, .T. );
#66 = FACE_OUTER_BOUND( '', #103, .T. );
#67 = CYLINDRICAL_SURFACE( '', #104, 9.00000000000000 );
#68 = SURFACE_STYLE_USAGE( .BOTH., #105 );
#69 = FACE_OUTER_BOUND( '', #106, .T. );
#70 = PLANE( '', #107 );
#71 = SURFACE_STYLE_USAGE( .BOTH., #108 );
#72 = FACE_OUTER_BOUND( '', #109, .T. );
#73 = PLANE( '', #110 );
#74 = SURFACE_STYLE_USAGE( .BOTH., #111 );
#75 = FACE_OUTER_BOUND( '', #112, .T. );
#76 = FACE_OUTER_BOUND( '', #113, .T. );
#77 = CYLINDRICAL_SURFACE( '', #114, 9.00000000000000 );
#78 = SURFACE_STYLE_USAGE( .BOTH., #115 );
#79 = FACE_OUTER_BOUND( '', #116, .T. );
#80 = PLANE( '', #117 );
#81 = SURFACE_STYLE_USAGE( .BOTH., #118 );
#82 = FACE_BOUND( '', #119, .T. );
#83 = FACE_BOUND( '', #120, .T. );
#84 = FACE_OUTER_BOUND( '', #121, .T. );
#85 = PLANE( '', #122 );
#86 = SURFACE_STYLE_USAGE( .BOTH., #123 );
#87 = FACE_BOUND( '', #124, .T. );
#88 = FACE_BOUND( '', #125, .T. );
#89 = FACE_OUTER_BOUND( '', #126, .T. );
#90 = PLANE( '', #127 );
#91 = SURFACE_STYLE_USAGE( .BOTH., #128 );
#92 = FACE_OUTER_BOUND( '', #129, .T. );
#93 = PLANE( '', #130 );
#94 = PRODUCT_CONTEXT( '', #18, 'mechanical' );
#95 = PRODUCT_DEFINITION_FORMATION_WITH_SPECIFIED_SOURCE( ' ', 'NONE', #47, .NOT_KNOWN. );
#96 = CLOSED_SHELL( '', ( #38, #44, #40, #42, #36, #34, #46, #32 ) );
#97 = CARTESIAN_POINT( '', ( 0.000000000000000, 0.000000000000000, 0.000000000000000 ) );
#98 = DIRECTION( '', ( 0.000000000000000, 0.000000000000000, 1.00000000000000 ) );
#99 = DIRECTION( '', ( 1.00000000000000, 0.000000000000000, 0.000000000000000 ) );
#100 =  ( LENGTH_UNIT(  )NAMED_UNIT( #56 )SI_UNIT( .MILLI., .METRE. ) );
#101 = SURFACE_SIDE_STYLE( '', ( #132 ) );
#102 = EDGE_LOOP( '', ( #133 ) );
#103 = EDGE_LOOP( '', ( #134 ) );
#104 = AXIS2_PLACEMENT_3D( '', #135, #136, #137 );
#105 = SURFACE_SIDE_STYLE( '', ( #138 ) );
#106 = EDGE_LOOP( '', ( #139, #140, #141, #142 ) );
#107 = AXIS2_PLACEMENT_3D( '', #143, #144, #145 );
#108 = SURFACE_SIDE_STYLE( '', ( #146 ) );
#109 = EDGE_LOOP( '', ( #147, #148, #149, #150 ) );
#110 = AXIS2_PLACEMENT_3D( '', #151, #152, #153 );
#111 = SURFACE_SIDE_STYLE( '', ( #154 ) );
#112 = EDGE_LOOP( '', ( #155 ) );
#113 = EDGE_LOOP( '', ( #156 ) );
#114 = AXIS2_PLACEMENT_3D( '', #157, #158, #159 );
#115 = SURFACE_SIDE_STYLE( '', ( #160 ) );
#116 = EDGE_LOOP( '', ( #161, #162, #163, #164 ) );
#117 = AXIS2_PLACEMENT_3D( '', #165, #166, #167 );
#118 = SURFACE_SIDE_STYLE( '', ( #168 ) );
#119 = EDGE_LOOP( '', ( #169 ) );
#120 = EDGE_LOOP( '', ( #170 ) );
#121 = EDGE_LOOP( '', ( #171, #172, #173, #174 ) );
#122 = AXIS2_PLACEMENT_3D( '', #175, #176, #177 );
#123 = SURFACE_SIDE_STYLE( '', ( #178 ) );
#124 = EDGE_LOOP( '', ( #179 ) );
#125 = EDGE_LOOP( '', ( #180 ) );
#126 = EDGE_LOOP( '', ( #181, #182, #183, #184 ) );
#127 = AXIS2_PLACEMENT_3D( '', #185, #186, #187 );
#128 = SURFACE_SIDE_STYLE( '', ( #188 ) );
#129 = EDGE_LOOP( '', ( #189, #190, #191, #192 ) );
#130 = AXIS2_PLACEMENT_3D( '', #193, #194, #195 );
#132 = SURFACE_STYLE_FILL_AREA( #196 );
#133 = ORIENTED_EDGE( '', *, *, #197, .F. );
#134 = ORIENTED_EDGE( '', *, *, #198, .F. );
#135 = CARTESIAN_POINT( '', ( -215.000000000000, 5.00000000000000, 136.000000000000 ) );
#136 = DIRECTION( '', ( -0.000000000000000, -0.000000000000000, 1.00000000000000 ) );
#137 = DIRECTION( '', ( 0.000000000000000, -1.00000000000000, 0.000000000000000 ) );
#138 = SURFACE_STYLE_FILL_AREA( #199 );
#139 = ORIENTED_EDGE( '', *, *, #200, .T. );
#140 = ORIENTED_EDGE( '', *, *, #201, .F. );
#141 = ORIENTED_EDGE( '', *, *, #202, .F. );
#142 = ORIENTED_EDGE( '', *, *, #203, .T. );
#143 = CARTESIAN_POINT( '', ( 298.000000000000, 31.0000000000000, 136.000000000000 ) );
#144 = DIRECTION( '', ( -2.91060985902149E-017, -1.00000000000000, 0.000000000000000 ) );
#145 = DIRECTION( '', ( 1.00000000000000, -2.91060985902149E-017, 0.000000000000000 ) );
#146 = SURFACE_STYLE_FILL_AREA( #204 );
#147 = ORIENTED_EDGE( '', *, *, #205, .T. );
#148 = ORIENTED_EDGE( '', *, *, #206, .F. );
#149 = ORIENTED_EDGE( '', *, *, #207, .F. );
#150 = ORIENTED_EDGE( '', *, *, #208, .T. );
#151 = CARTESIAN_POINT( '', ( -298.000000000000, -31.0000000000000, 136.000000000000 ) );
#152 = DIRECTION( '', ( 5.82121971804298E-017, 1.00000000000000, 0.000000000000000 ) );
#153 = DIRECTION( '', ( -1.00000000000000, 5.82121971804298E-017, 0.000000000000000 ) );
#154 = SURFACE_STYLE_FILL_AREA( #209 );
#155 = ORIENTED_EDGE( '', *, *, #210, .F. );
#156 = ORIENTED_EDGE( '', *, *, #211, .F. );
#157 = CARTESIAN_POINT( '', ( 215.000000000000, 5.00000000000006, 136.000000000000 ) );
#158 = DIRECTION( '', ( -0.000000000000000, -0.000000000000000, 1.00000000000000 ) );
#159 = DIRECTION( '', ( 0.000000000000000, -1.00000000000000, 0.000000000000000 ) );
#160 = SURFACE_STYLE_FILL_AREA( #212 );
#161 = ORIENTED_EDGE( '', *, *, #213, .T. );
#162 = ORIENTED_EDGE( '', *, *, #203, .F. );
#163 = ORIENTED_EDGE( '', *, *, #214, .F. );
#164 = ORIENTED_EDGE( '', *, *, #206, .T. );
#165 = CARTESIAN_POINT( '', ( 298.000000000000, -31.0000000000000, 136.000000000000 ) );
#166 = DIRECTION( '', ( -1.00000000000000, 0.000000000000000, 0.000000000000000 ) );
#167 = DIRECTION( '', ( 0.000000000000000, 0.000000000000000, 1.00000000000000 ) );
#168 = SURFACE_STYLE_FILL_AREA( #215 );
#169 = ORIENTED_EDGE( '', *, *, #210, .T. );
#170 = ORIENTED_EDGE( '', *, *, #197, .T. );
#171 = ORIENTED_EDGE( '', *, *, #202, .T. );
#172 = ORIENTED_EDGE( '', *, *, #216, .T. );
#173 = ORIENTED_EDGE( '', *, *, #207, .T. );
#174 = ORIENTED_EDGE( '', *, *, #214, .T. );
#175 = CARTESIAN_POINT( '', ( -298.000000000000, 31.0000000000000, 136.000000000000 ) );
#176 = DIRECTION( '', ( 0.000000000000000, 0.000000000000000, 1.00000000000000 ) );
#177 = DIRECTION( '', ( 1.00000000000000, 0.000000000000000, 0.000000000000000 ) );
#178 = SURFACE_STYLE_FILL_AREA( #217 );
#179 = ORIENTED_EDGE( '', *, *, #211, .T. );
#180 = ORIENTED_EDGE( '', *, *, #198, .T. );
#181 = ORIENTED_EDGE( '', *, *, #200, .F. );
#182 = ORIENTED_EDGE( '', *, *, #213, .F. );
#183 = ORIENTED_EDGE( '', *, *, #205, .F. );
#184 = ORIENTED_EDGE( '', *, *, #218, .F. );
#185 = CARTESIAN_POINT( '', ( -298.000000000000, 31.0000000000000, 0.000000000000000 ) );
#186 = DIRECTION( '', ( 0.000000000000000, 0.000000000000000, 1.00000000000000 ) );
#187 = DIRECTION( '', ( 1.00000000000000, 0.000000000000000, 0.000000000000000 ) );
#188 = SURFACE_STYLE_FILL_AREA( #219 );
#189 = ORIENTED_EDGE( '', *, *, #218, .T. );
#190 = ORIENTED_EDGE( '', *, *, #208, .F. );
#191 = ORIENTED_EDGE( '', *, *, #216, .F. );
#192 = ORIENTED_EDGE( '', *, *, #201, .T. );
#193 = CARTESIAN_POINT( '', ( -298.000000000000, 31.0000000000000, 136.000000000000 ) );
#194 = DIRECTION( '', ( 1.00000000000000, 0.000000000000000, 0.000000000000000 ) );
#195 = DIRECTION( '', ( 0.000000000000000, 0.000000000000000, -1.00000000000000 ) );
#196 = FILL_AREA_STYLE( '', ( #220 ) );
#197 = EDGE_CURVE( '', #221, #221, #222, .T. );
#198 = EDGE_CURVE( '', #223, #223, #224, .T. );
#199 = FILL_AREA_STYLE( '', ( #225 ) );
#200 = EDGE_CURVE( '', #226, #227, #228, .T. );
#201 = EDGE_CURVE( '', #229, #227, #230, .T. );
#202 = EDGE_CURVE( '', #231, #229, #232, .T. );
#203 = EDGE_CURVE( '', #231, #226, #233, .T. );
#204 = FILL_AREA_STYLE( '', ( #234 ) );
#205 = EDGE_CURVE( '', #235, #236, #237, .T. );
#206 = EDGE_CURVE( '', #238, #236, #239, .T. );
#207 = EDGE_CURVE( '', #240, #238, #241, .T. );
#208 = EDGE_CURVE( '', #240, #235, #242, .T. );
#209 = FILL_AREA_STYLE( '', ( #243 ) );
#210 = EDGE_CURVE( '', #244, #244, #245, .T. );
#211 = EDGE_CURVE( '', #246, #246, #247, .T. );
#212 = FILL_AREA_STYLE( '', ( #248 ) );
#213 = EDGE_CURVE( '', #236, #226, #249, .T. );
#214 = EDGE_CURVE( '', #238, #231, #250, .T. );
#215 = FILL_AREA_STYLE( '', ( #251 ) );
#216 = EDGE_CURVE( '', #229, #240, #252, .T. );
#217 = FILL_AREA_STYLE( '', ( #253 ) );
#218 = EDGE_CURVE( '', #227, #235, #254, .T. );
#219 = FILL_AREA_STYLE( '', ( #255 ) );
#220 = FILL_AREA_STYLE_COLOUR( '', #256 );
#221 = VERTEX_POINT( '', #257 );
#222 = CIRCLE( '', #258, 9.00000000000000 );
#223 = VERTEX_POINT( '', #259 );
#224 = CIRCLE( '', #260, 9.00000000000000 );
#225 = FILL_AREA_STYLE_COLOUR( '', #261 );
#226 = VERTEX_POINT( '', #262 );
#227 = VERTEX_POINT( '', #263 );
#228 = LINE( '', #264, #265 );
#229 = VERTEX_POINT( '', #266 );
#230 = LINE( '', #267, #268 );
#231 = VERTEX_POINT( '', #269 );
#232 = LINE( '', #270, #271 );
#233 = LINE( '', #272, #273 );
#234 = FILL_AREA_STYLE_COLOUR( '', #274 );
#235 = VERTEX_POINT( '', #275 );
#236 = VERTEX_POINT( '', #276 );
#237 = LINE( '', #277, #278 );
#238 = VERTEX_POINT( '', #279 );
#239 = LINE( '', #280, #281 );
#240 = VERTEX_POINT( '', #282 );
#241 = LINE( '', #283, #284 );
#242 = LINE( '', #285, #286 );
#243 = FILL_AREA_STYLE_COLOUR( '', #287 );
#244 = VERTEX_POINT( '', #288 );
#245 = CIRCLE( '', #289, 9.00000000000000 );
#246 = VERTEX_POINT( '', #290 );
#247 = CIRCLE( '', #291, 9.00000000000000 );
#248 = FILL_AREA_STYLE_COLOUR( '', #292 );
#249 = LINE( '', #293, #294 );
#250 = LINE( '', #295, #296 );
#251 = FILL_AREA_STYLE_COLOUR( '', #297 );
#252 = LINE( '', #298, #299 );
#253 = FILL_AREA_STYLE_COLOUR( '', #300 );
#254 = LINE( '', #301, #302 );
#255 = FILL_AREA_STYLE_COLOUR( '', #303 );
#256 = COLOUR_RGB( '', 0.752941191196442, 0.752941191196442, 0.752941191196442 );
#257 = CARTESIAN_POINT( '', ( -215.000000000000, -4.00000000000000, 136.000000000000 ) );
#258 = AXIS2_PLACEMENT_3D( '', #304, #305, #306 );
#259 = CARTESIAN_POINT( '', ( -206.000000000000, 5.00000000000000, 0.000000000000000 ) );
#260 = AXIS2_PLACEMENT_3D( '', #307, #308, #309 );
#261 = COLOUR_RGB( '', 0.752941191196442, 0.752941191196442, 0.752941191196442 );
#262 = CARTESIAN_POINT( '', ( 298.000000000000, 31.0000000000000, 0.000000000000000 ) );
#263 = CARTESIAN_POINT( '', ( -298.000000000000, 31.0000000000000, 0.000000000000000 ) );
#264 = CARTESIAN_POINT( '', ( 298.000000000000, 31.0000000000000, 0.000000000000000 ) );
#265 = VECTOR( '', #310, 1000.00000000000 );
#266 = CARTESIAN_POINT( '', ( -298.000000000000, 31.0000000000000, 136.000000000000 ) );
#267 = CARTESIAN_POINT( '', ( -298.000000000000, 31.0000000000000, 136.000000000000 ) );
#268 = VECTOR( '', #311, 1000.00000000000 );
#269 = CARTESIAN_POINT( '', ( 298.000000000000, 31.0000000000000, 136.000000000000 ) );
#270 = CARTESIAN_POINT( '', ( 298.000000000000, 31.0000000000000, 136.000000000000 ) );
#271 = VECTOR( '', #312, 1000.00000000000 );
#272 = CARTESIAN_POINT( '', ( 298.000000000000, 31.0000000000000, 136.000000000000 ) );
#273 = VECTOR( '', #313, 1000.00000000000 );
#274 = COLOUR_RGB( '', 0.752941191196442, 0.752941191196442, 0.752941191196442 );
#275 = CARTESIAN_POINT( '', ( -298.000000000000, -31.0000000000000, 0.000000000000000 ) );
#276 = CARTESIAN_POINT( '', ( 298.000000000000, -31.0000000000000, 0.000000000000000 ) );
#277 = CARTESIAN_POINT( '', ( -298.000000000000, -31.0000000000000, 0.000000000000000 ) );
#278 = VECTOR( '', #314, 1000.00000000000 );
#279 = CARTESIAN_POINT( '', ( 298.000000000000, -31.0000000000000, 136.000000000000 ) );
#280 = CARTESIAN_POINT( '', ( 298.000000000000, -31.0000000000000, 136.000000000000 ) );
#281 = VECTOR( '', #315, 1000.00000000000 );
#282 = CARTESIAN_POINT( '', ( -298.000000000000, -31.0000000000000, 136.000000000000 ) );
#283 = CARTESIAN_POINT( '', ( -298.000000000000, -31.0000000000000, 136.000000000000 ) );
#284 = VECTOR( '', #316, 1000.00000000000 );
#285 = CARTESIAN_POINT( '', ( -298.000000000000, -31.0000000000000, 136.000000000000 ) );
#286 = VECTOR( '', #317, 1000.00000000000 );
#287 = COLOUR_RGB( '', 0.752941191196442, 0.752941191196442, 0.752941191196442 );
#288 = CARTESIAN_POINT( '', ( 215.000000000000, -3.99999999999994, 136.000000000000 ) );
#289 = AXIS2_PLACEMENT_3D( '', #318, #319, #320 );
#290 = CARTESIAN_POINT( '', ( 224.000000000000, 5.00000000000006, 0.000000000000000 ) );
#291 = AXIS2_PLACEMENT_3D( '', #321, #322, #323 );
#292 = COLOUR_RGB( '', 0.752941191196442, 0.752941191196442, 0.752941191196442 );
#293 = CARTESIAN_POINT( '', ( 298.000000000000, -31.0000000000000, 0.000000000000000 ) );
#294 = VECTOR( '', #324, 1000.00000000000 );
#295 = CARTESIAN_POINT( '', ( 298.000000000000, -31.0000000000000, 136.000000000000 ) );
#296 = VECTOR( '', #325, 1000.00000000000 );
#297 = COLOUR_RGB( '', 0.752941191196442, 0.752941191196442, 0.752941191196442 );
#298 = CARTESIAN_POINT( '', ( -298.000000000000, 31.0000000000000, 136.000000000000 ) );
#299 = VECTOR( '', #326, 1000.00000000000 );
#300 = COLOUR_RGB( '', 0.752941191196442, 0.752941191196442, 0.752941191196442 );
#301 = CARTESIAN_POINT( '', ( -298.000000000000, 31.0000000000000, 0.000000000000000 ) );
#302 = VECTOR( '', #327, 1000.00000000000 );
#303 = COLOUR_RGB( '', 0.752941191196442, 0.752941191196442, 0.752941191196442 );
#304 = CARTESIAN_POINT( '', ( -215.000000000000, 5.00000000000000, 136.000000000000 ) );
#305 = DIRECTION( '', ( 0.000000000000000, 0.000000000000000, -1.00000000000000 ) );
#306 = DIRECTION( '', ( 0.000000000000000, -1.00000000000000, 0.000000000000000 ) );
#307 = CARTESIAN_POINT( '', ( -215.000000000000, 5.00000000000000, 0.000000000000000 ) );
#308 = DIRECTION( '', ( 0.000000000000000, 0.000000000000000, 1.00000000000000 ) );
#309 = DIRECTION( '', ( 1.00000000000000, 0.000000000000000, 0.000000000000000 ) );
#310 = DIRECTION( '', ( -1.00000000000000, 2.91060985902149E-017, 0.000000000000000 ) );
#311 = DIRECTION( '', ( 0.000000000000000, 0.000000000000000, -1.00000000000000 ) );
#312 = DIRECTION( '', ( -1.00000000000000, 2.91060985902149E-017, 0.000000000000000 ) );
#313 = DIRECTION( '', ( 0.000000000000000, 0.000000000000000, -1.00000000000000 ) );
#314 = DIRECTION( '', ( 1.00000000000000, -5.82121971804298E-017, 0.000000000000000 ) );
#315 = DIRECTION( '', ( 0.000000000000000, 0.000000000000000, -1.00000000000000 ) );
#316 = DIRECTION( '', ( 1.00000000000000, -5.82121971804298E-017, 0.000000000000000 ) );
#317 = DIRECTION( '', ( 0.000000000000000, 0.000000000000000, -1.00000000000000 ) );
#318 = CARTESIAN_POINT( '', ( 215.000000000000, 5.00000000000006, 136.000000000000 ) );
#319 = DIRECTION( '', ( 0.000000000000000, 0.000000000000000, -1.00000000000000 ) );
#320 = DIRECTION( '', ( 0.000000000000000, -1.00000000000000, 0.000000000000000 ) );
#321 = CARTESIAN_POINT( '', ( 215.000000000000, 5.00000000000006, 0.000000000000000 ) );
#322 = DIRECTION( '', ( 0.000000000000000, 0.000000000000000, 1.00000000000000 ) );
#323 = DIRECTION( '', ( 1.00000000000000, 0.000000000000000, 0.000000000000000 ) );
#324 = DIRECTION( '', ( 0.000000000000000, 1.00000000000000, 0.000000000000000 ) );
#325 = DIRECTION( '', ( 0.000000000000000, 1.00000000000000, 0.000000000000000 ) );
#326 = DIRECTION( '', ( 0.000000000000000, -1.00000000000000, 0.000000000000000 ) );
#327 = DIRECTION( '', ( 0.000000000000000, -1.00000000000000, 0.000000000000000 ) );
ENDSEC;
END-ISO-10303-21;
