ISO-10303-21;
HEADER;
FILE_DESCRIPTION( ( 'Unknown' ), '1' );
FILE_NAME( 'M:/Piezas_3D/Placas_Par/G1 y G2/OS_G1_496x696x116_.stp', 'Unknown', ( 'Unknown' ), ( 'Unknown' ), 'PSStep 16.0.42', 'Unknown', '  ' );
FILE_SCHEMA( ( 'AUTOMOTIVE_DESIGN { 1 0 10303 214 1 1 1 1 }' ) );
ENDSEC;
DATA;
#1 = MECHANICAL_DESIGN_GEOMETRIC_PRESENTATION_REPRESENTATION( ' ', ( #10, #11, #12, #13, #14, #15, #16, #17 ), #6 );
#2 = PRODUCT_DEFINITION_CONTEXT( '', #18, 'design' );
#3 = APPLICATION_PROTOCOL_DEFINITION( 'international standard', 'automotive_design', 2001, #18 );
#4 = PRODUCT_CATEGORY_RELATIONSHIP( 'NONE', 'NONE', #19, #20 );
#5 = SHAPE_DEFINITION_REPRESENTATION( #21, #22 );
#6 =  ( GEOMETRIC_REPRESENTATION_CONTEXT( 3 )GLOBAL_UNCERTAINTY_ASSIGNED_CONTEXT( ( #25 ) )GLOBAL_UNIT_ASSIGNED_CONTEXT( ( #27, #28, #29 ) )REPRESENTATION_CONTEXT( 'NONE', 'WORKSPACE' ) );
#10 = STYLED_ITEM( '', ( #31 ), #32 );
#11 = STYLED_ITEM( '', ( #33 ), #34 );
#12 = STYLED_ITEM( '', ( #35 ), #36 );
#13 = STYLED_ITEM( '', ( #37 ), #38 );
#14 = STYLED_ITEM( '', ( #39 ), #40 );
#15 = STYLED_ITEM( '', ( #41 ), #42 );
#16 = STYLED_ITEM( '', ( #43 ), #44 );
#17 = STYLED_ITEM( '', ( #45 ), #46 );
#18 = APPLICATION_CONTEXT( 'core data for automotive mechanical design processes' );
#19 = PRODUCT_CATEGORY( 'part', 'NONE' );
#20 = PRODUCT_RELATED_PRODUCT_CATEGORY( 'detail', ' ', ( #47 ) );
#21 = PRODUCT_DEFINITION_SHAPE( 'NONE', 'NONE', #48 );
#22 = ADVANCED_BREP_SHAPE_REPRESENTATION( '1', ( #49, #50 ), #6 );
#25 = UNCERTAINTY_MEASURE_WITH_UNIT( LENGTH_MEASURE( 0.00100000000000000 ), #27, '', '' );
#27 =  ( CONVERSION_BASED_UNIT( 'MILLIMETRE', #53 )LENGTH_UNIT(  )NAMED_UNIT( #56 ) );
#28 =  ( NAMED_UNIT( #58 )PLANE_ANGLE_UNIT(  )SI_UNIT( $, .RADIAN. ) );
#29 =  ( NAMED_UNIT( #58 )SI_UNIT( $, .STERADIAN. )SOLID_ANGLE_UNIT(  ) );
#31 = PRESENTATION_STYLE_ASSIGNMENT( ( #64 ) );
#32 = ADVANCED_FACE( '', ( #65 ), #66, .F. );
#33 = PRESENTATION_STYLE_ASSIGNMENT( ( #67 ) );
#34 = ADVANCED_FACE( '', ( #68, #69, #70 ), #71, .F. );
#35 = PRESENTATION_STYLE_ASSIGNMENT( ( #72 ) );
#36 = ADVANCED_FACE( '', ( #73 ), #74, .F. );
#37 = PRESENTATION_STYLE_ASSIGNMENT( ( #75 ) );
#38 = ADVANCED_FACE( '', ( #76, #77, #78 ), #79, .T. );
#39 = PRESENTATION_STYLE_ASSIGNMENT( ( #80 ) );
#40 = ADVANCED_FACE( '', ( #81 ), #82, .F. );
#41 = PRESENTATION_STYLE_ASSIGNMENT( ( #83 ) );
#42 = ADVANCED_FACE( '', ( #84 ), #85, .F. );
#43 = PRESENTATION_STYLE_ASSIGNMENT( ( #86 ) );
#44 = ADVANCED_FACE( '', ( #87, #88 ), #89, .F. );
#45 = PRESENTATION_STYLE_ASSIGNMENT( ( #90 ) );
#46 = ADVANCED_FACE( '', ( #91, #92 ), #93, .F. );
#47 = PRODUCT( '1', '1', 'PART-1-DESC', ( #94 ) );
#48 = PRODUCT_DEFINITION( 'NONE', 'NONE', #95, #2 );
#49 = MANIFOLD_SOLID_BREP( '1', #96 );
#50 = AXIS2_PLACEMENT_3D( '', #97, #98, #99 );
#53 = LENGTH_MEASURE_WITH_UNIT( LENGTH_MEASURE( 1.00000000000000 ), #100 );
#56 = DIMENSIONAL_EXPONENTS( 1.00000000000000, 0.000000000000000, 0.000000000000000, 0.000000000000000, 0.000000000000000, 0.000000000000000, 0.000000000000000 );
#58 = DIMENSIONAL_EXPONENTS( 0.000000000000000, 0.000000000000000, 0.000000000000000, 0.000000000000000, 0.000000000000000, 0.000000000000000, 0.000000000000000 );
#64 = SURFACE_STYLE_USAGE( .BOTH., #101 );
#65 = FACE_OUTER_BOUND( '', #102, .T. );
#66 = PLANE( '', #103 );
#67 = SURFACE_STYLE_USAGE( .BOTH., #104 );
#68 = FACE_BOUND( '', #105, .T. );
#69 = FACE_BOUND( '', #106, .T. );
#70 = FACE_OUTER_BOUND( '', #107, .T. );
#71 = PLANE( '', #108 );
#72 = SURFACE_STYLE_USAGE( .BOTH., #109 );
#73 = FACE_OUTER_BOUND( '', #110, .T. );
#74 = PLANE( '', #111 );
#75 = SURFACE_STYLE_USAGE( .BOTH., #112 );
#76 = FACE_BOUND( '', #113, .T. );
#77 = FACE_BOUND( '', #114, .T. );
#78 = FACE_OUTER_BOUND( '', #115, .T. );
#79 = PLANE( '', #116 );
#80 = SURFACE_STYLE_USAGE( .BOTH., #117 );
#81 = FACE_OUTER_BOUND( '', #118, .T. );
#82 = PLANE( '', #119 );
#83 = SURFACE_STYLE_USAGE( .BOTH., #120 );
#84 = FACE_OUTER_BOUND( '', #121, .T. );
#85 = PLANE( '', #122 );
#86 = SURFACE_STYLE_USAGE( .BOTH., #123 );
#87 = FACE_OUTER_BOUND( '', #124, .T. );
#88 = FACE_OUTER_BOUND( '', #125, .T. );
#89 = CYLINDRICAL_SURFACE( '', #126, 9.00000000000000 );
#90 = SURFACE_STYLE_USAGE( .BOTH., #127 );
#91 = FACE_OUTER_BOUND( '', #128, .T. );
#92 = FACE_OUTER_BOUND( '', #129, .T. );
#93 = CYLINDRICAL_SURFACE( '', #130, 9.00000000000000 );
#94 = PRODUCT_CONTEXT( '', #18, 'mechanical' );
#95 = PRODUCT_DEFINITION_FORMATION_WITH_SPECIFIED_SOURCE( ' ', 'NONE', #47, .NOT_KNOWN. );
#96 = CLOSED_SHELL( '', ( #46, #34, #42, #38, #32, #40, #36, #44 ) );
#97 = CARTESIAN_POINT( '', ( 0.000000000000000, 0.000000000000000, 0.000000000000000 ) );
#98 = DIRECTION( '', ( 0.000000000000000, 0.000000000000000, 1.00000000000000 ) );
#99 = DIRECTION( '', ( 1.00000000000000, 0.000000000000000, 0.000000000000000 ) );
#100 =  ( LENGTH_UNIT(  )NAMED_UNIT( #56 )SI_UNIT( .MILLI., .METRE. ) );
#101 = SURFACE_SIDE_STYLE( '', ( #132 ) );
#102 = EDGE_LOOP( '', ( #133, #134, #135, #136 ) );
#103 = AXIS2_PLACEMENT_3D( '', #137, #138, #139 );
#104 = SURFACE_SIDE_STYLE( '', ( #140 ) );
#105 = EDGE_LOOP( '', ( #141 ) );
#106 = EDGE_LOOP( '', ( #142 ) );
#107 = EDGE_LOOP( '', ( #143, #144, #145, #146 ) );
#108 = AXIS2_PLACEMENT_3D( '', #147, #148, #149 );
#109 = SURFACE_SIDE_STYLE( '', ( #150 ) );
#110 = EDGE_LOOP( '', ( #151, #152, #153, #154 ) );
#111 = AXIS2_PLACEMENT_3D( '', #155, #156, #157 );
#112 = SURFACE_SIDE_STYLE( '', ( #158 ) );
#113 = EDGE_LOOP( '', ( #159 ) );
#114 = EDGE_LOOP( '', ( #160 ) );
#115 = EDGE_LOOP( '', ( #161, #162, #163, #164 ) );
#116 = AXIS2_PLACEMENT_3D( '', #165, #166, #167 );
#117 = SURFACE_SIDE_STYLE( '', ( #168 ) );
#118 = EDGE_LOOP( '', ( #169, #170, #171, #172 ) );
#119 = AXIS2_PLACEMENT_3D( '', #173, #174, #175 );
#120 = SURFACE_SIDE_STYLE( '', ( #176 ) );
#121 = EDGE_LOOP( '', ( #177, #178, #179, #180 ) );
#122 = AXIS2_PLACEMENT_3D( '', #181, #182, #183 );
#123 = SURFACE_SIDE_STYLE( '', ( #184 ) );
#124 = EDGE_LOOP( '', ( #185 ) );
#125 = EDGE_LOOP( '', ( #186 ) );
#126 = AXIS2_PLACEMENT_3D( '', #187, #188, #189 );
#127 = SURFACE_SIDE_STYLE( '', ( #190 ) );
#128 = EDGE_LOOP( '', ( #191 ) );
#129 = EDGE_LOOP( '', ( #192 ) );
#130 = AXIS2_PLACEMENT_3D( '', #193, #194, #195 );
#132 = SURFACE_STYLE_FILL_AREA( #196 );
#133 = ORIENTED_EDGE( '', *, *, #197, .T. );
#134 = ORIENTED_EDGE( '', *, *, #198, .F. );
#135 = ORIENTED_EDGE( '', *, *, #199, .F. );
#136 = ORIENTED_EDGE( '', *, *, #200, .T. );
#137 = CARTESIAN_POINT( '', ( -348.000000000000, -31.0000000000000, 116.000000000000 ) );
#138 = DIRECTION( '', ( 5.48332133211060E-017, 1.00000000000000, 0.000000000000000 ) );
#139 = DIRECTION( '', ( -1.00000000000000, 5.48332133211060E-017, 0.000000000000000 ) );
#140 = SURFACE_STYLE_FILL_AREA( #201 );
#141 = ORIENTED_EDGE( '', *, *, #202, .T. );
#142 = ORIENTED_EDGE( '', *, *, #203, .T. );
#143 = ORIENTED_EDGE( '', *, *, #204, .F. );
#144 = ORIENTED_EDGE( '', *, *, #205, .F. );
#145 = ORIENTED_EDGE( '', *, *, #197, .F. );
#146 = ORIENTED_EDGE( '', *, *, #206, .F. );
#147 = CARTESIAN_POINT( '', ( -348.000000000000, 31.0000000000000, 0.000000000000000 ) );
#148 = DIRECTION( '', ( 0.000000000000000, 0.000000000000000, 1.00000000000000 ) );
#149 = DIRECTION( '', ( 1.00000000000000, 0.000000000000000, 0.000000000000000 ) );
#150 = SURFACE_STYLE_FILL_AREA( #207 );
#151 = ORIENTED_EDGE( '', *, *, #206, .T. );
#152 = ORIENTED_EDGE( '', *, *, #200, .F. );
#153 = ORIENTED_EDGE( '', *, *, #208, .F. );
#154 = ORIENTED_EDGE( '', *, *, #209, .T. );
#155 = CARTESIAN_POINT( '', ( -348.000000000000, 31.0000000000000, 116.000000000000 ) );
#156 = DIRECTION( '', ( 1.00000000000000, 0.000000000000000, 0.000000000000000 ) );
#157 = DIRECTION( '', ( 0.000000000000000, 0.000000000000000, -1.00000000000000 ) );
#158 = SURFACE_STYLE_FILL_AREA( #210 );
#159 = ORIENTED_EDGE( '', *, *, #211, .T. );
#160 = ORIENTED_EDGE( '', *, *, #212, .T. );
#161 = ORIENTED_EDGE( '', *, *, #213, .T. );
#162 = ORIENTED_EDGE( '', *, *, #208, .T. );
#163 = ORIENTED_EDGE( '', *, *, #199, .T. );
#164 = ORIENTED_EDGE( '', *, *, #214, .T. );
#165 = CARTESIAN_POINT( '', ( -348.000000000000, 31.0000000000000, 116.000000000000 ) );
#166 = DIRECTION( '', ( 0.000000000000000, 0.000000000000000, 1.00000000000000 ) );
#167 = DIRECTION( '', ( 1.00000000000000, 0.000000000000000, 0.000000000000000 ) );
#168 = SURFACE_STYLE_FILL_AREA( #215 );
#169 = ORIENTED_EDGE( '', *, *, #204, .T. );
#170 = ORIENTED_EDGE( '', *, *, #209, .F. );
#171 = ORIENTED_EDGE( '', *, *, #213, .F. );
#172 = ORIENTED_EDGE( '', *, *, #216, .T. );
#173 = CARTESIAN_POINT( '', ( 348.000000000000, 31.0000000000000, 116.000000000000 ) );
#174 = DIRECTION( '', ( -2.99090254478760E-017, -1.00000000000000, 0.000000000000000 ) );
#175 = DIRECTION( '', ( 1.00000000000000, -2.99090254478760E-017, 0.000000000000000 ) );
#176 = SURFACE_STYLE_FILL_AREA( #217 );
#177 = ORIENTED_EDGE( '', *, *, #205, .T. );
#178 = ORIENTED_EDGE( '', *, *, #216, .F. );
#179 = ORIENTED_EDGE( '', *, *, #214, .F. );
#180 = ORIENTED_EDGE( '', *, *, #198, .T. );
#181 = CARTESIAN_POINT( '', ( 348.000000000000, -31.0000000000000, 116.000000000000 ) );
#182 = DIRECTION( '', ( -1.00000000000000, 0.000000000000000, 0.000000000000000 ) );
#183 = DIRECTION( '', ( 0.000000000000000, 0.000000000000000, 1.00000000000000 ) );
#184 = SURFACE_STYLE_FILL_AREA( #218 );
#185 = ORIENTED_EDGE( '', *, *, #212, .F. );
#186 = ORIENTED_EDGE( '', *, *, #203, .F. );
#187 = CARTESIAN_POINT( '', ( -265.000000000000, 5.00000000000000, 116.000000000000 ) );
#188 = DIRECTION( '', ( -0.000000000000000, -0.000000000000000, 1.00000000000000 ) );
#189 = DIRECTION( '', ( 0.000000000000000, -1.00000000000000, 0.000000000000000 ) );
#190 = SURFACE_STYLE_FILL_AREA( #219 );
#191 = ORIENTED_EDGE( '', *, *, #211, .F. );
#192 = ORIENTED_EDGE( '', *, *, #202, .F. );
#193 = CARTESIAN_POINT( '', ( 265.000000000000, 5.00000000000007, 116.000000000000 ) );
#194 = DIRECTION( '', ( -0.000000000000000, -0.000000000000000, 1.00000000000000 ) );
#195 = DIRECTION( '', ( 0.000000000000000, -1.00000000000000, 0.000000000000000 ) );
#196 = FILL_AREA_STYLE( '', ( #220 ) );
#197 = EDGE_CURVE( '', #221, #222, #223, .T. );
#198 = EDGE_CURVE( '', #224, #222, #225, .T. );
#199 = EDGE_CURVE( '', #226, #224, #227, .T. );
#200 = EDGE_CURVE( '', #226, #221, #228, .T. );
#201 = FILL_AREA_STYLE( '', ( #229 ) );
#202 = EDGE_CURVE( '', #230, #230, #231, .T. );
#203 = EDGE_CURVE( '', #232, #232, #233, .T. );
#204 = EDGE_CURVE( '', #234, #235, #236, .T. );
#205 = EDGE_CURVE( '', #222, #234, #237, .T. );
#206 = EDGE_CURVE( '', #235, #221, #238, .T. );
#207 = FILL_AREA_STYLE( '', ( #239 ) );
#208 = EDGE_CURVE( '', #240, #226, #241, .T. );
#209 = EDGE_CURVE( '', #240, #235, #242, .T. );
#210 = FILL_AREA_STYLE( '', ( #243 ) );
#211 = EDGE_CURVE( '', #244, #244, #245, .T. );
#212 = EDGE_CURVE( '', #246, #246, #247, .T. );
#213 = EDGE_CURVE( '', #248, #240, #249, .T. );
#214 = EDGE_CURVE( '', #224, #248, #250, .T. );
#215 = FILL_AREA_STYLE( '', ( #251 ) );
#216 = EDGE_CURVE( '', #248, #234, #252, .T. );
#217 = FILL_AREA_STYLE( '', ( #253 ) );
#218 = FILL_AREA_STYLE( '', ( #254 ) );
#219 = FILL_AREA_STYLE( '', ( #255 ) );
#220 = FILL_AREA_STYLE_COLOUR( '', #256 );
#221 = VERTEX_POINT( '', #257 );
#222 = VERTEX_POINT( '', #258 );
#223 = LINE( '', #259, #260 );
#224 = VERTEX_POINT( '', #261 );
#225 = LINE( '', #262, #263 );
#226 = VERTEX_POINT( '', #264 );
#227 = LINE( '', #265, #266 );
#228 = LINE( '', #267, #268 );
#229 = FILL_AREA_STYLE_COLOUR( '', #269 );
#230 = VERTEX_POINT( '', #270 );
#231 = CIRCLE( '', #271, 9.00000000000000 );
#232 = VERTEX_POINT( '', #272 );
#233 = CIRCLE( '', #273, 9.00000000000000 );
#234 = VERTEX_POINT( '', #274 );
#235 = VERTEX_POINT( '', #275 );
#236 = LINE( '', #276, #277 );
#237 = LINE( '', #278, #279 );
#238 = LINE( '', #280, #281 );
#239 = FILL_AREA_STYLE_COLOUR( '', #282 );
#240 = VERTEX_POINT( '', #283 );
#241 = LINE( '', #284, #285 );
#242 = LINE( '', #286, #287 );
#243 = FILL_AREA_STYLE_COLOUR( '', #288 );
#244 = VERTEX_POINT( '', #289 );
#245 = CIRCLE( '', #290, 9.00000000000000 );
#246 = VERTEX_POINT( '', #291 );
#247 = CIRCLE( '', #292, 9.00000000000000 );
#248 = VERTEX_POINT( '', #293 );
#249 = LINE( '', #294, #295 );
#250 = LINE( '', #296, #297 );
#251 = FILL_AREA_STYLE_COLOUR( '', #298 );
#252 = LINE( '', #299, #300 );
#253 = FILL_AREA_STYLE_COLOUR( '', #301 );
#254 = FILL_AREA_STYLE_COLOUR( '', #302 );
#255 = FILL_AREA_STYLE_COLOUR( '', #303 );
#256 = COLOUR_RGB( '', 0.752941191196442, 0.752941191196442, 0.752941191196442 );
#257 = CARTESIAN_POINT( '', ( -348.000000000000, -31.0000000000000, 0.000000000000000 ) );
#258 = CARTESIAN_POINT( '', ( 348.000000000000, -31.0000000000000, 0.000000000000000 ) );
#259 = CARTESIAN_POINT( '', ( -348.000000000000, -31.0000000000000, 0.000000000000000 ) );
#260 = VECTOR( '', #304, 1000.00000000000 );
#261 = CARTESIAN_POINT( '', ( 348.000000000000, -31.0000000000000, 116.000000000000 ) );
#262 = CARTESIAN_POINT( '', ( 348.000000000000, -31.0000000000000, 116.000000000000 ) );
#263 = VECTOR( '', #305, 1000.00000000000 );
#264 = CARTESIAN_POINT( '', ( -348.000000000000, -31.0000000000000, 116.000000000000 ) );
#265 = CARTESIAN_POINT( '', ( -348.000000000000, -31.0000000000000, 116.000000000000 ) );
#266 = VECTOR( '', #306, 1000.00000000000 );
#267 = CARTESIAN_POINT( '', ( -348.000000000000, -31.0000000000000, 116.000000000000 ) );
#268 = VECTOR( '', #307, 1000.00000000000 );
#269 = COLOUR_RGB( '', 0.752941191196442, 0.752941191196442, 0.752941191196442 );
#270 = CARTESIAN_POINT( '', ( 274.000000000000, 5.00000000000007, 0.000000000000000 ) );
#271 = AXIS2_PLACEMENT_3D( '', #308, #309, #310 );
#272 = CARTESIAN_POINT( '', ( -256.000000000000, 5.00000000000000, 0.000000000000000 ) );
#273 = AXIS2_PLACEMENT_3D( '', #311, #312, #313 );
#274 = CARTESIAN_POINT( '', ( 348.000000000000, 31.0000000000000, 0.000000000000000 ) );
#275 = CARTESIAN_POINT( '', ( -348.000000000000, 31.0000000000000, 0.000000000000000 ) );
#276 = CARTESIAN_POINT( '', ( 348.000000000000, 31.0000000000000, 0.000000000000000 ) );
#277 = VECTOR( '', #314, 1000.00000000000 );
#278 = CARTESIAN_POINT( '', ( 348.000000000000, -31.0000000000000, 0.000000000000000 ) );
#279 = VECTOR( '', #315, 1000.00000000000 );
#280 = CARTESIAN_POINT( '', ( -348.000000000000, 31.0000000000000, 0.000000000000000 ) );
#281 = VECTOR( '', #316, 1000.00000000000 );
#282 = COLOUR_RGB( '', 0.752941191196442, 0.752941191196442, 0.752941191196442 );
#283 = CARTESIAN_POINT( '', ( -348.000000000000, 31.0000000000000, 116.000000000000 ) );
#284 = CARTESIAN_POINT( '', ( -348.000000000000, 31.0000000000000, 116.000000000000 ) );
#285 = VECTOR( '', #317, 1000.00000000000 );
#286 = CARTESIAN_POINT( '', ( -348.000000000000, 31.0000000000000, 116.000000000000 ) );
#287 = VECTOR( '', #318, 1000.00000000000 );
#288 = COLOUR_RGB( '', 0.752941191196442, 0.752941191196442, 0.752941191196442 );
#289 = CARTESIAN_POINT( '', ( 265.000000000000, -3.99999999999993, 116.000000000000 ) );
#290 = AXIS2_PLACEMENT_3D( '', #319, #320, #321 );
#291 = CARTESIAN_POINT( '', ( -265.000000000000, -4.00000000000000, 116.000000000000 ) );
#292 = AXIS2_PLACEMENT_3D( '', #322, #323, #324 );
#293 = CARTESIAN_POINT( '', ( 348.000000000000, 31.0000000000000, 116.000000000000 ) );
#294 = CARTESIAN_POINT( '', ( 348.000000000000, 31.0000000000000, 116.000000000000 ) );
#295 = VECTOR( '', #325, 1000.00000000000 );
#296 = CARTESIAN_POINT( '', ( 348.000000000000, -31.0000000000000, 116.000000000000 ) );
#297 = VECTOR( '', #326, 1000.00000000000 );
#298 = COLOUR_RGB( '', 0.752941191196442, 0.752941191196442, 0.752941191196442 );
#299 = CARTESIAN_POINT( '', ( 348.000000000000, 31.0000000000000, 116.000000000000 ) );
#300 = VECTOR( '', #327, 1000.00000000000 );
#301 = COLOUR_RGB( '', 0.752941191196442, 0.752941191196442, 0.752941191196442 );
#302 = COLOUR_RGB( '', 0.752941191196442, 0.752941191196442, 0.752941191196442 );
#303 = COLOUR_RGB( '', 0.752941191196442, 0.752941191196442, 0.752941191196442 );
#304 = DIRECTION( '', ( 1.00000000000000, -5.48332133211060E-017, 0.000000000000000 ) );
#305 = DIRECTION( '', ( 0.000000000000000, 0.000000000000000, -1.00000000000000 ) );
#306 = DIRECTION( '', ( 1.00000000000000, -5.48332133211060E-017, 0.000000000000000 ) );
#307 = DIRECTION( '', ( 0.000000000000000, 0.000000000000000, -1.00000000000000 ) );
#308 = CARTESIAN_POINT( '', ( 265.000000000000, 5.00000000000007, 0.000000000000000 ) );
#309 = DIRECTION( '', ( 0.000000000000000, 0.000000000000000, 1.00000000000000 ) );
#310 = DIRECTION( '', ( 1.00000000000000, 0.000000000000000, 0.000000000000000 ) );
#311 = CARTESIAN_POINT( '', ( -265.000000000000, 5.00000000000000, 0.000000000000000 ) );
#312 = DIRECTION( '', ( 0.000000000000000, 0.000000000000000, 1.00000000000000 ) );
#313 = DIRECTION( '', ( 1.00000000000000, 0.000000000000000, 0.000000000000000 ) );
#314 = DIRECTION( '', ( -1.00000000000000, 2.99090254478760E-017, 0.000000000000000 ) );
#315 = DIRECTION( '', ( 0.000000000000000, 1.00000000000000, 0.000000000000000 ) );
#316 = DIRECTION( '', ( 0.000000000000000, -1.00000000000000, 0.000000000000000 ) );
#317 = DIRECTION( '', ( 0.000000000000000, -1.00000000000000, 0.000000000000000 ) );
#318 = DIRECTION( '', ( 0.000000000000000, 0.000000000000000, -1.00000000000000 ) );
#319 = CARTESIAN_POINT( '', ( 265.000000000000, 5.00000000000007, 116.000000000000 ) );
#320 = DIRECTION( '', ( 0.000000000000000, 0.000000000000000, -1.00000000000000 ) );
#321 = DIRECTION( '', ( 0.000000000000000, -1.00000000000000, 0.000000000000000 ) );
#322 = CARTESIAN_POINT( '', ( -265.000000000000, 5.00000000000000, 116.000000000000 ) );
#323 = DIRECTION( '', ( 0.000000000000000, 0.000000000000000, -1.00000000000000 ) );
#324 = DIRECTION( '', ( 0.000000000000000, -1.00000000000000, 0.000000000000000 ) );
#325 = DIRECTION( '', ( -1.00000000000000, 2.99090254478760E-017, 0.000000000000000 ) );
#326 = DIRECTION( '', ( 0.000000000000000, 1.00000000000000, 0.000000000000000 ) );
#327 = DIRECTION( '', ( 0.000000000000000, 0.000000000000000, -1.00000000000000 ) );
ENDSEC;
END-ISO-10303-21;
