ISO-10303-21;
HEADER;
FILE_DESCRIPTION( ( 'Unknown' ), '1' );
FILE_NAME( 'M:/Piezas_3D/Placas_Par/G1/OS_G1_796x896x096_.stp', 'Unknown', ( 'Unknown' ), ( 'Unknown' ), 'PSStep 16.0.42', 'Unknown', '  ' );
FILE_SCHEMA( ( 'AUTOMOTIVE_DESIGN { 1 0 10303 214 1 1 1 1 }' ) );
ENDSEC;
DATA;
#1 = MECHANICAL_DESIGN_GEOMETRIC_PRESENTATION_REPRESENTATION( ' ', ( #10, #11, #12, #13, #14, #15, #16, #17 ), #6 );
#2 = PRODUCT_DEFINITION_CONTEXT( '', #18, 'design' );
#3 = APPLICATION_PROTOCOL_DEFINITION( 'international standard', 'automotive_design', 2001, #18 );
#4 = PRODUCT_CATEGORY_RELATIONSHIP( 'NONE', 'NONE', #19, #20 );
#5 = SHAPE_DEFINITION_REPRESENTATION( #21, #22 );
#6 =  ( GEOMETRIC_REPRESENTATION_CONTEXT( 3 )GLOBAL_UNCERTAINTY_ASSIGNED_CONTEXT( ( #25 ) )GLOBAL_UNIT_ASSIGNED_CONTEXT( ( #27, #28, #29 ) )REPRESENTATION_CONTEXT( 'NONE', 'WORKSPACE' ) );
#10 = STYLED_ITEM( '', ( #31 ), #32 );
#11 = STYLED_ITEM( '', ( #33 ), #34 );
#12 = STYLED_ITEM( '', ( #35 ), #36 );
#13 = STYLED_ITEM( '', ( #37 ), #38 );
#14 = STYLED_ITEM( '', ( #39 ), #40 );
#15 = STYLED_ITEM( '', ( #41 ), #42 );
#16 = STYLED_ITEM( '', ( #43 ), #44 );
#17 = STYLED_ITEM( '', ( #45 ), #46 );
#18 = APPLICATION_CONTEXT( 'core data for automotive mechanical design processes' );
#19 = PRODUCT_CATEGORY( 'part', 'NONE' );
#20 = PRODUCT_RELATED_PRODUCT_CATEGORY( 'detail', ' ', ( #47 ) );
#21 = PRODUCT_DEFINITION_SHAPE( 'NONE', 'NONE', #48 );
#22 = ADVANCED_BREP_SHAPE_REPRESENTATION( '1', ( #49, #50 ), #6 );
#25 = UNCERTAINTY_MEASURE_WITH_UNIT( LENGTH_MEASURE( 0.00100000000000000 ), #27, '', '' );
#27 =  ( CONVERSION_BASED_UNIT( 'MILLIMETRE', #53 )LENGTH_UNIT(  )NAMED_UNIT( #56 ) );
#28 =  ( NAMED_UNIT( #58 )PLANE_ANGLE_UNIT(  )SI_UNIT( $, .RADIAN. ) );
#29 =  ( NAMED_UNIT( #58 )SI_UNIT( $, .STERADIAN. )SOLID_ANGLE_UNIT(  ) );
#31 = PRESENTATION_STYLE_ASSIGNMENT( ( #64 ) );
#32 = ADVANCED_FACE( '', ( #65 ), #66, .F. );
#33 = PRESENTATION_STYLE_ASSIGNMENT( ( #67 ) );
#34 = ADVANCED_FACE( '', ( #68 ), #69, .F. );
#35 = PRESENTATION_STYLE_ASSIGNMENT( ( #70 ) );
#36 = ADVANCED_FACE( '', ( #71, #72 ), #73, .F. );
#37 = PRESENTATION_STYLE_ASSIGNMENT( ( #74 ) );
#38 = ADVANCED_FACE( '', ( #75 ), #76, .F. );
#39 = PRESENTATION_STYLE_ASSIGNMENT( ( #77 ) );
#40 = ADVANCED_FACE( '', ( #78, #79, #80 ), #81, .F. );
#41 = PRESENTATION_STYLE_ASSIGNMENT( ( #82 ) );
#42 = ADVANCED_FACE( '', ( #83, #84 ), #85, .F. );
#43 = PRESENTATION_STYLE_ASSIGNMENT( ( #86 ) );
#44 = ADVANCED_FACE( '', ( #87, #88, #89 ), #90, .T. );
#45 = PRESENTATION_STYLE_ASSIGNMENT( ( #91 ) );
#46 = ADVANCED_FACE( '', ( #92 ), #93, .F. );
#47 = PRODUCT( '1', '1', 'PART-1-DESC', ( #94 ) );
#48 = PRODUCT_DEFINITION( 'NONE', 'NONE', #95, #2 );
#49 = MANIFOLD_SOLID_BREP( '1', #96 );
#50 = AXIS2_PLACEMENT_3D( '', #97, #98, #99 );
#53 = LENGTH_MEASURE_WITH_UNIT( LENGTH_MEASURE( 1.00000000000000 ), #100 );
#56 = DIMENSIONAL_EXPONENTS( 1.00000000000000, 0.000000000000000, 0.000000000000000, 0.000000000000000, 0.000000000000000, 0.000000000000000, 0.000000000000000 );
#58 = DIMENSIONAL_EXPONENTS( 0.000000000000000, 0.000000000000000, 0.000000000000000, 0.000000000000000, 0.000000000000000, 0.000000000000000, 0.000000000000000 );
#64 = SURFACE_STYLE_USAGE( .BOTH., #101 );
#65 = FACE_OUTER_BOUND( '', #102, .T. );
#66 = PLANE( '', #103 );
#67 = SURFACE_STYLE_USAGE( .BOTH., #104 );
#68 = FACE_OUTER_BOUND( '', #105, .T. );
#69 = PLANE( '', #106 );
#70 = SURFACE_STYLE_USAGE( .BOTH., #107 );
#71 = FACE_OUTER_BOUND( '', #108, .T. );
#72 = FACE_OUTER_BOUND( '', #109, .T. );
#73 = CYLINDRICAL_SURFACE( '', #110, 11.0000000000000 );
#74 = SURFACE_STYLE_USAGE( .BOTH., #111 );
#75 = FACE_OUTER_BOUND( '', #112, .T. );
#76 = PLANE( '', #113 );
#77 = SURFACE_STYLE_USAGE( .BOTH., #114 );
#78 = FACE_BOUND( '', #115, .T. );
#79 = FACE_BOUND( '', #116, .T. );
#80 = FACE_OUTER_BOUND( '', #117, .T. );
#81 = PLANE( '', #118 );
#82 = SURFACE_STYLE_USAGE( .BOTH., #119 );
#83 = FACE_OUTER_BOUND( '', #120, .T. );
#84 = FACE_OUTER_BOUND( '', #121, .T. );
#85 = CYLINDRICAL_SURFACE( '', #122, 11.0000000000000 );
#86 = SURFACE_STYLE_USAGE( .BOTH., #123 );
#87 = FACE_BOUND( '', #124, .T. );
#88 = FACE_BOUND( '', #125, .T. );
#89 = FACE_OUTER_BOUND( '', #126, .T. );
#90 = PLANE( '', #127 );
#91 = SURFACE_STYLE_USAGE( .BOTH., #128 );
#92 = FACE_OUTER_BOUND( '', #129, .T. );
#93 = PLANE( '', #130 );
#94 = PRODUCT_CONTEXT( '', #18, 'mechanical' );
#95 = PRODUCT_DEFINITION_FORMATION_WITH_SPECIFIED_SOURCE( ' ', 'NONE', #47, .NOT_KNOWN. );
#96 = CLOSED_SHELL( '', ( #42, #40, #34, #44, #32, #46, #38, #36 ) );
#97 = CARTESIAN_POINT( '', ( 0.000000000000000, 0.000000000000000, 0.000000000000000 ) );
#98 = DIRECTION( '', ( 0.000000000000000, 0.000000000000000, 1.00000000000000 ) );
#99 = DIRECTION( '', ( 1.00000000000000, 0.000000000000000, 0.000000000000000 ) );
#100 =  ( LENGTH_UNIT(  )NAMED_UNIT( #56 )SI_UNIT( .MILLI., .METRE. ) );
#101 = SURFACE_SIDE_STYLE( '', ( #132 ) );
#102 = EDGE_LOOP( '', ( #133, #134, #135, #136 ) );
#103 = AXIS2_PLACEMENT_3D( '', #137, #138, #139 );
#104 = SURFACE_SIDE_STYLE( '', ( #140 ) );
#105 = EDGE_LOOP( '', ( #141, #142, #143, #144 ) );
#106 = AXIS2_PLACEMENT_3D( '', #145, #146, #147 );
#107 = SURFACE_SIDE_STYLE( '', ( #148 ) );
#108 = EDGE_LOOP( '', ( #149 ) );
#109 = EDGE_LOOP( '', ( #150 ) );
#110 = AXIS2_PLACEMENT_3D( '', #151, #152, #153 );
#111 = SURFACE_SIDE_STYLE( '', ( #154 ) );
#112 = EDGE_LOOP( '', ( #155, #156, #157, #158 ) );
#113 = AXIS2_PLACEMENT_3D( '', #159, #160, #161 );
#114 = SURFACE_SIDE_STYLE( '', ( #162 ) );
#115 = EDGE_LOOP( '', ( #163 ) );
#116 = EDGE_LOOP( '', ( #164 ) );
#117 = EDGE_LOOP( '', ( #165, #166, #167, #168 ) );
#118 = AXIS2_PLACEMENT_3D( '', #169, #170, #171 );
#119 = SURFACE_SIDE_STYLE( '', ( #172 ) );
#120 = EDGE_LOOP( '', ( #173 ) );
#121 = EDGE_LOOP( '', ( #174 ) );
#122 = AXIS2_PLACEMENT_3D( '', #175, #176, #177 );
#123 = SURFACE_SIDE_STYLE( '', ( #178 ) );
#124 = EDGE_LOOP( '', ( #179 ) );
#125 = EDGE_LOOP( '', ( #180 ) );
#126 = EDGE_LOOP( '', ( #181, #182, #183, #184 ) );
#127 = AXIS2_PLACEMENT_3D( '', #185, #186, #187 );
#128 = SURFACE_SIDE_STYLE( '', ( #188 ) );
#129 = EDGE_LOOP( '', ( #189, #190, #191, #192 ) );
#130 = AXIS2_PLACEMENT_3D( '', #193, #194, #195 );
#132 = SURFACE_STYLE_FILL_AREA( #196 );
#133 = ORIENTED_EDGE( '', *, *, #197, .T. );
#134 = ORIENTED_EDGE( '', *, *, #198, .F. );
#135 = ORIENTED_EDGE( '', *, *, #199, .F. );
#136 = ORIENTED_EDGE( '', *, *, #200, .T. );
#137 = CARTESIAN_POINT( '', ( -448.000000000000, -42.0000000000000, 96.0000000000000 ) );
#138 = DIRECTION( '', ( 6.19544098563145E-017, 1.00000000000000, 0.000000000000000 ) );
#139 = DIRECTION( '', ( -1.00000000000000, 6.19544098563145E-017, 0.000000000000000 ) );
#140 = SURFACE_STYLE_FILL_AREA( #201 );
#141 = ORIENTED_EDGE( '', *, *, #202, .T. );
#142 = ORIENTED_EDGE( '', *, *, #203, .F. );
#143 = ORIENTED_EDGE( '', *, *, #204, .F. );
#144 = ORIENTED_EDGE( '', *, *, #198, .T. );
#145 = CARTESIAN_POINT( '', ( 448.000000000000, -42.0000000000000, 96.0000000000000 ) );
#146 = DIRECTION( '', ( -1.00000000000000, 0.000000000000000, 0.000000000000000 ) );
#147 = DIRECTION( '', ( 0.000000000000000, 0.000000000000000, 1.00000000000000 ) );
#148 = SURFACE_STYLE_FILL_AREA( #205 );
#149 = ORIENTED_EDGE( '', *, *, #206, .F. );
#150 = ORIENTED_EDGE( '', *, *, #207, .F. );
#151 = CARTESIAN_POINT( '', ( -337.000000000000, 10.0000000000000, 96.0000000000000 ) );
#152 = DIRECTION( '', ( -0.000000000000000, -0.000000000000000, 1.00000000000000 ) );
#153 = DIRECTION( '', ( 0.000000000000000, -1.00000000000000, 0.000000000000000 ) );
#154 = SURFACE_STYLE_FILL_AREA( #208 );
#155 = ORIENTED_EDGE( '', *, *, #209, .T. );
#156 = ORIENTED_EDGE( '', *, *, #200, .F. );
#157 = ORIENTED_EDGE( '', *, *, #210, .F. );
#158 = ORIENTED_EDGE( '', *, *, #211, .T. );
#159 = CARTESIAN_POINT( '', ( -448.000000000000, 42.0000000000000, 96.0000000000000 ) );
#160 = DIRECTION( '', ( 1.00000000000000, 0.000000000000000, 0.000000000000000 ) );
#161 = DIRECTION( '', ( 0.000000000000000, 0.000000000000000, -1.00000000000000 ) );
#162 = SURFACE_STYLE_FILL_AREA( #212 );
#163 = ORIENTED_EDGE( '', *, *, #213, .T. );
#164 = ORIENTED_EDGE( '', *, *, #207, .T. );
#165 = ORIENTED_EDGE( '', *, *, #214, .F. );
#166 = ORIENTED_EDGE( '', *, *, #202, .F. );
#167 = ORIENTED_EDGE( '', *, *, #197, .F. );
#168 = ORIENTED_EDGE( '', *, *, #209, .F. );
#169 = CARTESIAN_POINT( '', ( -448.000000000000, 42.0000000000000, 0.000000000000000 ) );
#170 = DIRECTION( '', ( 0.000000000000000, 0.000000000000000, 1.00000000000000 ) );
#171 = DIRECTION( '', ( 1.00000000000000, 0.000000000000000, 0.000000000000000 ) );
#172 = SURFACE_STYLE_FILL_AREA( #215 );
#173 = ORIENTED_EDGE( '', *, *, #216, .F. );
#174 = ORIENTED_EDGE( '', *, *, #213, .F. );
#175 = CARTESIAN_POINT( '', ( 337.000000000000, 10.0000000000000, 96.0000000000000 ) );
#176 = DIRECTION( '', ( -0.000000000000000, -0.000000000000000, 1.00000000000000 ) );
#177 = DIRECTION( '', ( 0.000000000000000, -1.00000000000000, 0.000000000000000 ) );
#178 = SURFACE_STYLE_FILL_AREA( #217 );
#179 = ORIENTED_EDGE( '', *, *, #216, .T. );
#180 = ORIENTED_EDGE( '', *, *, #206, .T. );
#181 = ORIENTED_EDGE( '', *, *, #218, .T. );
#182 = ORIENTED_EDGE( '', *, *, #210, .T. );
#183 = ORIENTED_EDGE( '', *, *, #199, .T. );
#184 = ORIENTED_EDGE( '', *, *, #204, .T. );
#185 = CARTESIAN_POINT( '', ( -448.000000000000, 42.0000000000000, 96.0000000000000 ) );
#186 = DIRECTION( '', ( 0.000000000000000, 0.000000000000000, 1.00000000000000 ) );
#187 = DIRECTION( '', ( 1.00000000000000, 0.000000000000000, 0.000000000000000 ) );
#188 = SURFACE_STYLE_FILL_AREA( #219 );
#189 = ORIENTED_EDGE( '', *, *, #214, .T. );
#190 = ORIENTED_EDGE( '', *, *, #211, .F. );
#191 = ORIENTED_EDGE( '', *, *, #218, .F. );
#192 = ORIENTED_EDGE( '', *, *, #203, .T. );
#193 = CARTESIAN_POINT( '', ( 448.000000000000, 42.0000000000000, 96.0000000000000 ) );
#194 = DIRECTION( '', ( -3.87215061601966E-017, -1.00000000000000, 0.000000000000000 ) );
#195 = DIRECTION( '', ( 1.00000000000000, -3.87215061601966E-017, 0.000000000000000 ) );
#196 = FILL_AREA_STYLE( '', ( #220 ) );
#197 = EDGE_CURVE( '', #221, #222, #223, .T. );
#198 = EDGE_CURVE( '', #224, #222, #225, .T. );
#199 = EDGE_CURVE( '', #226, #224, #227, .T. );
#200 = EDGE_CURVE( '', #226, #221, #228, .T. );
#201 = FILL_AREA_STYLE( '', ( #229 ) );
#202 = EDGE_CURVE( '', #222, #230, #231, .T. );
#203 = EDGE_CURVE( '', #232, #230, #233, .T. );
#204 = EDGE_CURVE( '', #224, #232, #234, .T. );
#205 = FILL_AREA_STYLE( '', ( #235 ) );
#206 = EDGE_CURVE( '', #236, #236, #237, .T. );
#207 = EDGE_CURVE( '', #238, #238, #239, .T. );
#208 = FILL_AREA_STYLE( '', ( #240 ) );
#209 = EDGE_CURVE( '', #241, #221, #242, .T. );
#210 = EDGE_CURVE( '', #243, #226, #244, .T. );
#211 = EDGE_CURVE( '', #243, #241, #245, .T. );
#212 = FILL_AREA_STYLE( '', ( #246 ) );
#213 = EDGE_CURVE( '', #247, #247, #248, .T. );
#214 = EDGE_CURVE( '', #230, #241, #249, .T. );
#215 = FILL_AREA_STYLE( '', ( #250 ) );
#216 = EDGE_CURVE( '', #251, #251, #252, .T. );
#217 = FILL_AREA_STYLE( '', ( #253 ) );
#218 = EDGE_CURVE( '', #232, #243, #254, .T. );
#219 = FILL_AREA_STYLE( '', ( #255 ) );
#220 = FILL_AREA_STYLE_COLOUR( '', #256 );
#221 = VERTEX_POINT( '', #257 );
#222 = VERTEX_POINT( '', #258 );
#223 = LINE( '', #259, #260 );
#224 = VERTEX_POINT( '', #261 );
#225 = LINE( '', #262, #263 );
#226 = VERTEX_POINT( '', #264 );
#227 = LINE( '', #265, #266 );
#228 = LINE( '', #267, #268 );
#229 = FILL_AREA_STYLE_COLOUR( '', #269 );
#230 = VERTEX_POINT( '', #270 );
#231 = LINE( '', #271, #272 );
#232 = VERTEX_POINT( '', #273 );
#233 = LINE( '', #274, #275 );
#234 = LINE( '', #276, #277 );
#235 = FILL_AREA_STYLE_COLOUR( '', #278 );
#236 = VERTEX_POINT( '', #279 );
#237 = CIRCLE( '', #280, 11.0000000000000 );
#238 = VERTEX_POINT( '', #281 );
#239 = CIRCLE( '', #282, 11.0000000000000 );
#240 = FILL_AREA_STYLE_COLOUR( '', #283 );
#241 = VERTEX_POINT( '', #284 );
#242 = LINE( '', #285, #286 );
#243 = VERTEX_POINT( '', #287 );
#244 = LINE( '', #288, #289 );
#245 = LINE( '', #290, #291 );
#246 = FILL_AREA_STYLE_COLOUR( '', #292 );
#247 = VERTEX_POINT( '', #293 );
#248 = CIRCLE( '', #294, 11.0000000000000 );
#249 = LINE( '', #295, #296 );
#250 = FILL_AREA_STYLE_COLOUR( '', #297 );
#251 = VERTEX_POINT( '', #298 );
#252 = CIRCLE( '', #299, 11.0000000000000 );
#253 = FILL_AREA_STYLE_COLOUR( '', #300 );
#254 = LINE( '', #301, #302 );
#255 = FILL_AREA_STYLE_COLOUR( '', #303 );
#256 = COLOUR_RGB( '', 0.752941191196442, 0.752941191196442, 0.752941191196442 );
#257 = CARTESIAN_POINT( '', ( -448.000000000000, -42.0000000000000, 0.000000000000000 ) );
#258 = CARTESIAN_POINT( '', ( 448.000000000000, -42.0000000000000, 0.000000000000000 ) );
#259 = CARTESIAN_POINT( '', ( -448.000000000000, -42.0000000000000, 0.000000000000000 ) );
#260 = VECTOR( '', #304, 1000.00000000000 );
#261 = CARTESIAN_POINT( '', ( 448.000000000000, -42.0000000000000, 96.0000000000000 ) );
#262 = CARTESIAN_POINT( '', ( 448.000000000000, -42.0000000000000, 96.0000000000000 ) );
#263 = VECTOR( '', #305, 1000.00000000000 );
#264 = CARTESIAN_POINT( '', ( -448.000000000000, -42.0000000000000, 96.0000000000000 ) );
#265 = CARTESIAN_POINT( '', ( -448.000000000000, -42.0000000000000, 96.0000000000000 ) );
#266 = VECTOR( '', #306, 1000.00000000000 );
#267 = CARTESIAN_POINT( '', ( -448.000000000000, -42.0000000000000, 96.0000000000000 ) );
#268 = VECTOR( '', #307, 1000.00000000000 );
#269 = COLOUR_RGB( '', 0.752941191196442, 0.752941191196442, 0.752941191196442 );
#270 = CARTESIAN_POINT( '', ( 448.000000000000, 42.0000000000000, 0.000000000000000 ) );
#271 = CARTESIAN_POINT( '', ( 448.000000000000, -42.0000000000000, 0.000000000000000 ) );
#272 = VECTOR( '', #308, 1000.00000000000 );
#273 = CARTESIAN_POINT( '', ( 448.000000000000, 42.0000000000000, 96.0000000000000 ) );
#274 = CARTESIAN_POINT( '', ( 448.000000000000, 42.0000000000000, 96.0000000000000 ) );
#275 = VECTOR( '', #309, 1000.00000000000 );
#276 = CARTESIAN_POINT( '', ( 448.000000000000, -42.0000000000000, 96.0000000000000 ) );
#277 = VECTOR( '', #310, 1000.00000000000 );
#278 = COLOUR_RGB( '', 0.752941191196442, 0.752941191196442, 0.752941191196442 );
#279 = CARTESIAN_POINT( '', ( -337.000000000000, -0.999999999999999, 96.0000000000000 ) );
#280 = AXIS2_PLACEMENT_3D( '', #311, #312, #313 );
#281 = CARTESIAN_POINT( '', ( -326.000000000000, 10.0000000000000, 0.000000000000000 ) );
#282 = AXIS2_PLACEMENT_3D( '', #314, #315, #316 );
#283 = COLOUR_RGB( '', 0.752941191196442, 0.752941191196442, 0.752941191196442 );
#284 = CARTESIAN_POINT( '', ( -448.000000000000, 42.0000000000000, 0.000000000000000 ) );
#285 = CARTESIAN_POINT( '', ( -448.000000000000, 42.0000000000000, 0.000000000000000 ) );
#286 = VECTOR( '', #317, 1000.00000000000 );
#287 = CARTESIAN_POINT( '', ( -448.000000000000, 42.0000000000000, 96.0000000000000 ) );
#288 = CARTESIAN_POINT( '', ( -448.000000000000, 42.0000000000000, 96.0000000000000 ) );
#289 = VECTOR( '', #318, 1000.00000000000 );
#290 = CARTESIAN_POINT( '', ( -448.000000000000, 42.0000000000000, 96.0000000000000 ) );
#291 = VECTOR( '', #319, 1000.00000000000 );
#292 = COLOUR_RGB( '', 0.752941191196442, 0.752941191196442, 0.752941191196442 );
#293 = CARTESIAN_POINT( '', ( 348.000000000000, 10.0000000000000, 0.000000000000000 ) );
#294 = AXIS2_PLACEMENT_3D( '', #320, #321, #322 );
#295 = CARTESIAN_POINT( '', ( 448.000000000000, 42.0000000000000, 0.000000000000000 ) );
#296 = VECTOR( '', #323, 1000.00000000000 );
#297 = COLOUR_RGB( '', 0.752941191196442, 0.752941191196442, 0.752941191196442 );
#298 = CARTESIAN_POINT( '', ( 337.000000000000, -0.999999999999999, 96.0000000000000 ) );
#299 = AXIS2_PLACEMENT_3D( '', #324, #325, #326 );
#300 = COLOUR_RGB( '', 0.752941191196442, 0.752941191196442, 0.752941191196442 );
#301 = CARTESIAN_POINT( '', ( 448.000000000000, 42.0000000000000, 96.0000000000000 ) );
#302 = VECTOR( '', #327, 1000.00000000000 );
#303 = COLOUR_RGB( '', 0.752941191196442, 0.752941191196442, 0.752941191196442 );
#304 = DIRECTION( '', ( 1.00000000000000, -6.19544098563145E-017, 0.000000000000000 ) );
#305 = DIRECTION( '', ( 0.000000000000000, 0.000000000000000, -1.00000000000000 ) );
#306 = DIRECTION( '', ( 1.00000000000000, -6.19544098563145E-017, 0.000000000000000 ) );
#307 = DIRECTION( '', ( 0.000000000000000, 0.000000000000000, -1.00000000000000 ) );
#308 = DIRECTION( '', ( 0.000000000000000, 1.00000000000000, 0.000000000000000 ) );
#309 = DIRECTION( '', ( 0.000000000000000, 0.000000000000000, -1.00000000000000 ) );
#310 = DIRECTION( '', ( 0.000000000000000, 1.00000000000000, 0.000000000000000 ) );
#311 = CARTESIAN_POINT( '', ( -337.000000000000, 10.0000000000000, 96.0000000000000 ) );
#312 = DIRECTION( '', ( 0.000000000000000, 0.000000000000000, -1.00000000000000 ) );
#313 = DIRECTION( '', ( 0.000000000000000, -1.00000000000000, 0.000000000000000 ) );
#314 = CARTESIAN_POINT( '', ( -337.000000000000, 10.0000000000000, 0.000000000000000 ) );
#315 = DIRECTION( '', ( 0.000000000000000, 0.000000000000000, 1.00000000000000 ) );
#316 = DIRECTION( '', ( 1.00000000000000, 0.000000000000000, 0.000000000000000 ) );
#317 = DIRECTION( '', ( 0.000000000000000, -1.00000000000000, 0.000000000000000 ) );
#318 = DIRECTION( '', ( 0.000000000000000, -1.00000000000000, 0.000000000000000 ) );
#319 = DIRECTION( '', ( 0.000000000000000, 0.000000000000000, -1.00000000000000 ) );
#320 = CARTESIAN_POINT( '', ( 337.000000000000, 10.0000000000000, 0.000000000000000 ) );
#321 = DIRECTION( '', ( 0.000000000000000, 0.000000000000000, 1.00000000000000 ) );
#322 = DIRECTION( '', ( 1.00000000000000, 0.000000000000000, 0.000000000000000 ) );
#323 = DIRECTION( '', ( -1.00000000000000, 3.87215061601966E-017, 0.000000000000000 ) );
#324 = CARTESIAN_POINT( '', ( 337.000000000000, 10.0000000000000, 96.0000000000000 ) );
#325 = DIRECTION( '', ( 0.000000000000000, 0.000000000000000, -1.00000000000000 ) );
#326 = DIRECTION( '', ( 0.000000000000000, -1.00000000000000, 0.000000000000000 ) );
#327 = DIRECTION( '', ( -1.00000000000000, 3.87215061601966E-017, 0.000000000000000 ) );
ENDSEC;
END-ISO-10303-21;
