ISO-10303-21;
HEADER;
FILE_DESCRIPTION( ( 'Unknown' ), '1' );
FILE_NAME( 'M:/Piezas_3D/Placas_Par/G2/OS_G2_156x156x076_.stp', 'Unknown', ( 'Unknown' ), ( 'Unknown' ), 'PSStep 16.0.42', 'Unknown', '  ' );
FILE_SCHEMA( ( 'AUTOMOTIVE_DESIGN { 1 0 10303 214 1 1 1 1 }' ) );
ENDSEC;
DATA;
#1 = MECHANICAL_DESIGN_GEOMETRIC_PRESENTATION_REPRESENTATION( ' ', ( #10, #11, #12, #13, #14, #15, #16, #17, #18, #19 ), #6 );
#2 = PRODUCT_DEFINITION_CONTEXT( '', #20, 'design' );
#3 = APPLICATION_PROTOCOL_DEFINITION( 'international standard', 'automotive_design', 2001, #20 );
#4 = PRODUCT_CATEGORY_RELATIONSHIP( 'NONE', 'NONE', #21, #22 );
#5 = SHAPE_DEFINITION_REPRESENTATION( #23, #24 );
#6 =  ( GEOMETRIC_REPRESENTATION_CONTEXT( 3 )GLOBAL_UNCERTAINTY_ASSIGNED_CONTEXT( ( #27 ) )GLOBAL_UNIT_ASSIGNED_CONTEXT( ( #29, #30, #31 ) )REPRESENTATION_CONTEXT( 'NONE', 'WORKSPACE' ) );
#10 = STYLED_ITEM( '', ( #33 ), #34 );
#11 = STYLED_ITEM( '', ( #35 ), #36 );
#12 = STYLED_ITEM( '', ( #37 ), #38 );
#13 = STYLED_ITEM( '', ( #39 ), #40 );
#14 = STYLED_ITEM( '', ( #41 ), #42 );
#15 = STYLED_ITEM( '', ( #43 ), #44 );
#16 = STYLED_ITEM( '', ( #45 ), #46 );
#17 = STYLED_ITEM( '', ( #47 ), #48 );
#18 = STYLED_ITEM( '', ( #49 ), #50 );
#19 = STYLED_ITEM( '', ( #51 ), #52 );
#20 = APPLICATION_CONTEXT( 'core data for automotive mechanical design processes' );
#21 = PRODUCT_CATEGORY( 'part', 'NONE' );
#22 = PRODUCT_RELATED_PRODUCT_CATEGORY( 'detail', ' ', ( #53 ) );
#23 = PRODUCT_DEFINITION_SHAPE( 'NONE', 'NONE', #54 );
#24 = ADVANCED_BREP_SHAPE_REPRESENTATION( '1', ( #55, #56 ), #6 );
#27 = UNCERTAINTY_MEASURE_WITH_UNIT( LENGTH_MEASURE( 0.00100000000000000 ), #29, '', '' );
#29 =  ( CONVERSION_BASED_UNIT( 'MILLIMETRE', #59 )LENGTH_UNIT(  )NAMED_UNIT( #62 ) );
#30 =  ( NAMED_UNIT( #64 )PLANE_ANGLE_UNIT(  )SI_UNIT( $, .RADIAN. ) );
#31 =  ( NAMED_UNIT( #64 )SI_UNIT( $, .STERADIAN. )SOLID_ANGLE_UNIT(  ) );
#33 = PRESENTATION_STYLE_ASSIGNMENT( ( #70 ) );
#34 = ADVANCED_FACE( '', ( #71, #72, #73, #74, #75 ), #76, .F. );
#35 = PRESENTATION_STYLE_ASSIGNMENT( ( #77 ) );
#36 = ADVANCED_FACE( '', ( #78, #79, #80, #81, #82 ), #83, .T. );
#37 = PRESENTATION_STYLE_ASSIGNMENT( ( #84 ) );
#38 = ADVANCED_FACE( '', ( #85, #86 ), #87, .F. );
#39 = PRESENTATION_STYLE_ASSIGNMENT( ( #88 ) );
#40 = ADVANCED_FACE( '', ( #89, #90 ), #91, .F. );
#41 = PRESENTATION_STYLE_ASSIGNMENT( ( #92 ) );
#42 = ADVANCED_FACE( '', ( #93 ), #94, .F. );
#43 = PRESENTATION_STYLE_ASSIGNMENT( ( #95 ) );
#44 = ADVANCED_FACE( '', ( #96 ), #97, .F. );
#45 = PRESENTATION_STYLE_ASSIGNMENT( ( #98 ) );
#46 = ADVANCED_FACE( '', ( #99 ), #100, .F. );
#47 = PRESENTATION_STYLE_ASSIGNMENT( ( #101 ) );
#48 = ADVANCED_FACE( '', ( #102, #103 ), #104, .F. );
#49 = PRESENTATION_STYLE_ASSIGNMENT( ( #105 ) );
#50 = ADVANCED_FACE( '', ( #106, #107 ), #108, .F. );
#51 = PRESENTATION_STYLE_ASSIGNMENT( ( #109 ) );
#52 = ADVANCED_FACE( '', ( #110 ), #111, .F. );
#53 = PRODUCT( '1', '1', 'PART-1-DESC', ( #112 ) );
#54 = PRODUCT_DEFINITION( 'NONE', 'NONE', #113, #2 );
#55 = MANIFOLD_SOLID_BREP( '1', #114 );
#56 = AXIS2_PLACEMENT_3D( '', #115, #116, #117 );
#59 = LENGTH_MEASURE_WITH_UNIT( LENGTH_MEASURE( 1.00000000000000 ), #118 );
#62 = DIMENSIONAL_EXPONENTS( 1.00000000000000, 0.000000000000000, 0.000000000000000, 0.000000000000000, 0.000000000000000, 0.000000000000000, 0.000000000000000 );
#64 = DIMENSIONAL_EXPONENTS( 0.000000000000000, 0.000000000000000, 0.000000000000000, 0.000000000000000, 0.000000000000000, 0.000000000000000, 0.000000000000000 );
#70 = SURFACE_STYLE_USAGE( .BOTH., #119 );
#71 = FACE_BOUND( '', #120, .T. );
#72 = FACE_BOUND( '', #121, .T. );
#73 = FACE_BOUND( '', #122, .T. );
#74 = FACE_BOUND( '', #123, .T. );
#75 = FACE_OUTER_BOUND( '', #124, .T. );
#76 = PLANE( '', #125 );
#77 = SURFACE_STYLE_USAGE( .BOTH., #126 );
#78 = FACE_BOUND( '', #127, .T. );
#79 = FACE_BOUND( '', #128, .T. );
#80 = FACE_BOUND( '', #129, .T. );
#81 = FACE_BOUND( '', #130, .T. );
#82 = FACE_OUTER_BOUND( '', #131, .T. );
#83 = PLANE( '', #132 );
#84 = SURFACE_STYLE_USAGE( .BOTH., #133 );
#85 = FACE_OUTER_BOUND( '', #134, .T. );
#86 = FACE_OUTER_BOUND( '', #135, .T. );
#87 = CYLINDRICAL_SURFACE( '', #136, 5.50000000000000 );
#88 = SURFACE_STYLE_USAGE( .BOTH., #137 );
#89 = FACE_OUTER_BOUND( '', #138, .T. );
#90 = FACE_OUTER_BOUND( '', #139, .T. );
#91 = CYLINDRICAL_SURFACE( '', #140, 10.0000000000000 );
#92 = SURFACE_STYLE_USAGE( .BOTH., #141 );
#93 = FACE_OUTER_BOUND( '', #142, .T. );
#94 = PLANE( '', #143 );
#95 = SURFACE_STYLE_USAGE( .BOTH., #144 );
#96 = FACE_OUTER_BOUND( '', #145, .T. );
#97 = PLANE( '', #146 );
#98 = SURFACE_STYLE_USAGE( .BOTH., #147 );
#99 = FACE_OUTER_BOUND( '', #148, .T. );
#100 = PLANE( '', #149 );
#101 = SURFACE_STYLE_USAGE( .BOTH., #150 );
#102 = FACE_OUTER_BOUND( '', #151, .T. );
#103 = FACE_OUTER_BOUND( '', #152, .T. );
#104 = CYLINDRICAL_SURFACE( '', #153, 10.0000000000000 );
#105 = SURFACE_STYLE_USAGE( .BOTH., #154 );
#106 = FACE_OUTER_BOUND( '', #155, .T. );
#107 = FACE_OUTER_BOUND( '', #156, .T. );
#108 = CYLINDRICAL_SURFACE( '', #157, 5.50000000000000 );
#109 = SURFACE_STYLE_USAGE( .BOTH., #158 );
#110 = FACE_OUTER_BOUND( '', #159, .T. );
#111 = PLANE( '', #160 );
#112 = PRODUCT_CONTEXT( '', #20, 'mechanical' );
#113 = PRODUCT_DEFINITION_FORMATION_WITH_SPECIFIED_SOURCE( ' ', 'NONE', #53, .NOT_KNOWN. );
#114 = CLOSED_SHELL( '', ( #50, #34, #44, #36, #46, #52, #42, #38, #48, #40 ) );
#115 = CARTESIAN_POINT( '', ( 0.000000000000000, 0.000000000000000, 0.000000000000000 ) );
#116 = DIRECTION( '', ( 0.000000000000000, 0.000000000000000, 1.00000000000000 ) );
#117 = DIRECTION( '', ( 1.00000000000000, 0.000000000000000, 0.000000000000000 ) );
#118 =  ( LENGTH_UNIT(  )NAMED_UNIT( #62 )SI_UNIT( .MILLI., .METRE. ) );
#119 = SURFACE_SIDE_STYLE( '', ( #162 ) );
#120 = EDGE_LOOP( '', ( #163 ) );
#121 = EDGE_LOOP( '', ( #164 ) );
#122 = EDGE_LOOP( '', ( #165 ) );
#123 = EDGE_LOOP( '', ( #166 ) );
#124 = EDGE_LOOP( '', ( #167, #168, #169, #170 ) );
#125 = AXIS2_PLACEMENT_3D( '', #171, #172, #173 );
#126 = SURFACE_SIDE_STYLE( '', ( #174 ) );
#127 = EDGE_LOOP( '', ( #175 ) );
#128 = EDGE_LOOP( '', ( #176 ) );
#129 = EDGE_LOOP( '', ( #177 ) );
#130 = EDGE_LOOP( '', ( #178 ) );
#131 = EDGE_LOOP( '', ( #179, #180, #181, #182 ) );
#132 = AXIS2_PLACEMENT_3D( '', #183, #184, #185 );
#133 = SURFACE_SIDE_STYLE( '', ( #186 ) );
#134 = EDGE_LOOP( '', ( #187 ) );
#135 = EDGE_LOOP( '', ( #188 ) );
#136 = AXIS2_PLACEMENT_3D( '', #189, #190, #191 );
#137 = SURFACE_SIDE_STYLE( '', ( #192 ) );
#138 = EDGE_LOOP( '', ( #193 ) );
#139 = EDGE_LOOP( '', ( #194 ) );
#140 = AXIS2_PLACEMENT_3D( '', #195, #196, #197 );
#141 = SURFACE_SIDE_STYLE( '', ( #198 ) );
#142 = EDGE_LOOP( '', ( #199, #200, #201, #202 ) );
#143 = AXIS2_PLACEMENT_3D( '', #203, #204, #205 );
#144 = SURFACE_SIDE_STYLE( '', ( #206 ) );
#145 = EDGE_LOOP( '', ( #207, #208, #209, #210 ) );
#146 = AXIS2_PLACEMENT_3D( '', #211, #212, #213 );
#147 = SURFACE_SIDE_STYLE( '', ( #214 ) );
#148 = EDGE_LOOP( '', ( #215, #216, #217, #218 ) );
#149 = AXIS2_PLACEMENT_3D( '', #219, #220, #221 );
#150 = SURFACE_SIDE_STYLE( '', ( #222 ) );
#151 = EDGE_LOOP( '', ( #223 ) );
#152 = EDGE_LOOP( '', ( #224 ) );
#153 = AXIS2_PLACEMENT_3D( '', #225, #226, #227 );
#154 = SURFACE_SIDE_STYLE( '', ( #228 ) );
#155 = EDGE_LOOP( '', ( #229 ) );
#156 = EDGE_LOOP( '', ( #230 ) );
#157 = AXIS2_PLACEMENT_3D( '', #231, #232, #233 );
#158 = SURFACE_SIDE_STYLE( '', ( #234 ) );
#159 = EDGE_LOOP( '', ( #235, #236, #237, #238 ) );
#160 = AXIS2_PLACEMENT_3D( '', #239, #240, #241 );
#162 = SURFACE_STYLE_FILL_AREA( #242 );
#163 = ORIENTED_EDGE( '', *, *, #243, .T. );
#164 = ORIENTED_EDGE( '', *, *, #244, .T. );
#165 = ORIENTED_EDGE( '', *, *, #245, .T. );
#166 = ORIENTED_EDGE( '', *, *, #246, .T. );
#167 = ORIENTED_EDGE( '', *, *, #247, .F. );
#168 = ORIENTED_EDGE( '', *, *, #248, .F. );
#169 = ORIENTED_EDGE( '', *, *, #249, .F. );
#170 = ORIENTED_EDGE( '', *, *, #250, .F. );
#171 = CARTESIAN_POINT( '', ( -78.0000000000000, 16.0000000000000, 0.000000000000000 ) );
#172 = DIRECTION( '', ( 0.000000000000000, 0.000000000000000, 1.00000000000000 ) );
#173 = DIRECTION( '', ( 1.00000000000000, 0.000000000000000, 0.000000000000000 ) );
#174 = SURFACE_STYLE_FILL_AREA( #251 );
#175 = ORIENTED_EDGE( '', *, *, #252, .T. );
#176 = ORIENTED_EDGE( '', *, *, #253, .T. );
#177 = ORIENTED_EDGE( '', *, *, #254, .T. );
#178 = ORIENTED_EDGE( '', *, *, #255, .T. );
#179 = ORIENTED_EDGE( '', *, *, #256, .T. );
#180 = ORIENTED_EDGE( '', *, *, #257, .T. );
#181 = ORIENTED_EDGE( '', *, *, #258, .T. );
#182 = ORIENTED_EDGE( '', *, *, #259, .T. );
#183 = CARTESIAN_POINT( '', ( -78.0000000000000, 16.0000000000000, 76.0000000000000 ) );
#184 = DIRECTION( '', ( 0.000000000000000, 0.000000000000000, 1.00000000000000 ) );
#185 = DIRECTION( '', ( 1.00000000000000, 0.000000000000000, 0.000000000000000 ) );
#186 = SURFACE_STYLE_FILL_AREA( #260 );
#187 = ORIENTED_EDGE( '', *, *, #254, .F. );
#188 = ORIENTED_EDGE( '', *, *, #245, .F. );
#189 = CARTESIAN_POINT( '', ( 36.0000000000000, 1.00000000000003, 76.0000000000000 ) );
#190 = DIRECTION( '', ( -0.000000000000000, -0.000000000000000, 1.00000000000000 ) );
#191 = DIRECTION( '', ( 0.000000000000000, -1.00000000000000, 0.000000000000000 ) );
#192 = SURFACE_STYLE_FILL_AREA( #261 );
#193 = ORIENTED_EDGE( '', *, *, #252, .F. );
#194 = ORIENTED_EDGE( '', *, *, #243, .F. );
#195 = CARTESIAN_POINT( '', ( -61.0000000000000, 1.00000000000002, 76.0000000000000 ) );
#196 = DIRECTION( '', ( -0.000000000000000, -0.000000000000000, 1.00000000000000 ) );
#197 = DIRECTION( '', ( 0.000000000000000, -1.00000000000000, 0.000000000000000 ) );
#198 = SURFACE_STYLE_FILL_AREA( #262 );
#199 = ORIENTED_EDGE( '', *, *, #250, .T. );
#200 = ORIENTED_EDGE( '', *, *, #263, .F. );
#201 = ORIENTED_EDGE( '', *, *, #257, .F. );
#202 = ORIENTED_EDGE( '', *, *, #264, .T. );
#203 = CARTESIAN_POINT( '', ( -78.0000000000000, 16.0000000000000, 76.0000000000000 ) );
#204 = DIRECTION( '', ( 1.00000000000000, 4.33680868994202E-016, 0.000000000000000 ) );
#205 = DIRECTION( '', ( -4.33680868994202E-016, 1.00000000000000, 0.000000000000000 ) );
#206 = SURFACE_STYLE_FILL_AREA( #265 );
#207 = ORIENTED_EDGE( '', *, *, #248, .T. );
#208 = ORIENTED_EDGE( '', *, *, #266, .F. );
#209 = ORIENTED_EDGE( '', *, *, #259, .F. );
#210 = ORIENTED_EDGE( '', *, *, #267, .T. );
#211 = CARTESIAN_POINT( '', ( 78.0000000000000, -16.0000000000000, 76.0000000000000 ) );
#212 = DIRECTION( '', ( -1.00000000000000, -4.33680868994202E-016, 0.000000000000000 ) );
#213 = DIRECTION( '', ( 4.33680868994202E-016, -1.00000000000000, 0.000000000000000 ) );
#214 = SURFACE_STYLE_FILL_AREA( #268 );
#215 = ORIENTED_EDGE( '', *, *, #249, .T. );
#216 = ORIENTED_EDGE( '', *, *, #267, .F. );
#217 = ORIENTED_EDGE( '', *, *, #258, .F. );
#218 = ORIENTED_EDGE( '', *, *, #263, .T. );
#219 = CARTESIAN_POINT( '', ( -78.0000000000000, -16.0000000000000, 76.0000000000000 ) );
#220 = DIRECTION( '', ( 8.89601782552209E-017, 1.00000000000000, 0.000000000000000 ) );
#221 = DIRECTION( '', ( -1.00000000000000, 8.89601782552209E-017, 0.000000000000000 ) );
#222 = SURFACE_STYLE_FILL_AREA( #269 );
#223 = ORIENTED_EDGE( '', *, *, #253, .F. );
#224 = ORIENTED_EDGE( '', *, *, #244, .F. );
#225 = CARTESIAN_POINT( '', ( 61.0000000000000, 1.00000000000002, 76.0000000000000 ) );
#226 = DIRECTION( '', ( -0.000000000000000, -0.000000000000000, 1.00000000000000 ) );
#227 = DIRECTION( '', ( 0.000000000000000, -1.00000000000000, 0.000000000000000 ) );
#228 = SURFACE_STYLE_FILL_AREA( #270 );
#229 = ORIENTED_EDGE( '', *, *, #255, .F. );
#230 = ORIENTED_EDGE( '', *, *, #246, .F. );
#231 = CARTESIAN_POINT( '', ( -36.0000000000000, 1.00000000000003, 76.0000000000000 ) );
#232 = DIRECTION( '', ( -0.000000000000000, -0.000000000000000, 1.00000000000000 ) );
#233 = DIRECTION( '', ( 0.000000000000000, -1.00000000000000, 0.000000000000000 ) );
#234 = SURFACE_STYLE_FILL_AREA( #271 );
#235 = ORIENTED_EDGE( '', *, *, #247, .T. );
#236 = ORIENTED_EDGE( '', *, *, #264, .F. );
#237 = ORIENTED_EDGE( '', *, *, #256, .F. );
#238 = ORIENTED_EDGE( '', *, *, #266, .T. );
#239 = CARTESIAN_POINT( '', ( 78.0000000000000, 16.0000000000000, 76.0000000000000 ) );
#240 = DIRECTION( '', ( -2.00160401074247E-016, -1.00000000000000, 0.000000000000000 ) );
#241 = DIRECTION( '', ( 1.00000000000000, -2.00160401074247E-016, 0.000000000000000 ) );
#242 = FILL_AREA_STYLE( '', ( #272 ) );
#243 = EDGE_CURVE( '', #273, #273, #274, .T. );
#244 = EDGE_CURVE( '', #275, #275, #276, .T. );
#245 = EDGE_CURVE( '', #277, #277, #278, .T. );
#246 = EDGE_CURVE( '', #279, #279, #280, .T. );
#247 = EDGE_CURVE( '', #281, #282, #283, .T. );
#248 = EDGE_CURVE( '', #284, #281, #285, .T. );
#249 = EDGE_CURVE( '', #286, #284, #287, .T. );
#250 = EDGE_CURVE( '', #282, #286, #288, .T. );
#251 = FILL_AREA_STYLE( '', ( #289 ) );
#252 = EDGE_CURVE( '', #290, #290, #291, .T. );
#253 = EDGE_CURVE( '', #292, #292, #293, .T. );
#254 = EDGE_CURVE( '', #294, #294, #295, .T. );
#255 = EDGE_CURVE( '', #296, #296, #297, .T. );
#256 = EDGE_CURVE( '', #298, #299, #300, .T. );
#257 = EDGE_CURVE( '', #299, #301, #302, .T. );
#258 = EDGE_CURVE( '', #301, #303, #304, .T. );
#259 = EDGE_CURVE( '', #303, #298, #305, .T. );
#260 = FILL_AREA_STYLE( '', ( #306 ) );
#261 = FILL_AREA_STYLE( '', ( #307 ) );
#262 = FILL_AREA_STYLE( '', ( #308 ) );
#263 = EDGE_CURVE( '', #301, #286, #309, .T. );
#264 = EDGE_CURVE( '', #299, #282, #310, .T. );
#265 = FILL_AREA_STYLE( '', ( #311 ) );
#266 = EDGE_CURVE( '', #298, #281, #312, .T. );
#267 = EDGE_CURVE( '', #303, #284, #313, .T. );
#268 = FILL_AREA_STYLE( '', ( #314 ) );
#269 = FILL_AREA_STYLE( '', ( #315 ) );
#270 = FILL_AREA_STYLE( '', ( #316 ) );
#271 = FILL_AREA_STYLE( '', ( #317 ) );
#272 = FILL_AREA_STYLE_COLOUR( '', #318 );
#273 = VERTEX_POINT( '', #319 );
#274 = CIRCLE( '', #320, 10.0000000000000 );
#275 = VERTEX_POINT( '', #321 );
#276 = CIRCLE( '', #322, 10.0000000000000 );
#277 = VERTEX_POINT( '', #323 );
#278 = CIRCLE( '', #324, 5.50000000000000 );
#279 = VERTEX_POINT( '', #325 );
#280 = CIRCLE( '', #326, 5.50000000000000 );
#281 = VERTEX_POINT( '', #327 );
#282 = VERTEX_POINT( '', #328 );
#283 = LINE( '', #329, #330 );
#284 = VERTEX_POINT( '', #331 );
#285 = LINE( '', #332, #333 );
#286 = VERTEX_POINT( '', #334 );
#287 = LINE( '', #335, #336 );
#288 = LINE( '', #337, #338 );
#289 = FILL_AREA_STYLE_COLOUR( '', #339 );
#290 = VERTEX_POINT( '', #340 );
#291 = CIRCLE( '', #341, 10.0000000000000 );
#292 = VERTEX_POINT( '', #342 );
#293 = CIRCLE( '', #343, 10.0000000000000 );
#294 = VERTEX_POINT( '', #344 );
#295 = CIRCLE( '', #345, 5.50000000000000 );
#296 = VERTEX_POINT( '', #346 );
#297 = CIRCLE( '', #347, 5.50000000000000 );
#298 = VERTEX_POINT( '', #348 );
#299 = VERTEX_POINT( '', #349 );
#300 = LINE( '', #350, #351 );
#301 = VERTEX_POINT( '', #352 );
#302 = LINE( '', #353, #354 );
#303 = VERTEX_POINT( '', #355 );
#304 = LINE( '', #356, #357 );
#305 = LINE( '', #358, #359 );
#306 = FILL_AREA_STYLE_COLOUR( '', #360 );
#307 = FILL_AREA_STYLE_COLOUR( '', #361 );
#308 = FILL_AREA_STYLE_COLOUR( '', #362 );
#309 = LINE( '', #363, #364 );
#310 = LINE( '', #365, #366 );
#311 = FILL_AREA_STYLE_COLOUR( '', #367 );
#312 = LINE( '', #368, #369 );
#313 = LINE( '', #370, #371 );
#314 = FILL_AREA_STYLE_COLOUR( '', #372 );
#315 = FILL_AREA_STYLE_COLOUR( '', #373 );
#316 = FILL_AREA_STYLE_COLOUR( '', #374 );
#317 = FILL_AREA_STYLE_COLOUR( '', #375 );
#318 = COLOUR_RGB( '', 0.752941191196442, 0.752941191196442, 0.752941191196442 );
#319 = CARTESIAN_POINT( '', ( -51.0000000000000, 1.00000000000002, 0.000000000000000 ) );
#320 = AXIS2_PLACEMENT_3D( '', #376, #377, #378 );
#321 = CARTESIAN_POINT( '', ( 71.0000000000000, 1.00000000000002, 0.000000000000000 ) );
#322 = AXIS2_PLACEMENT_3D( '', #379, #380, #381 );
#323 = CARTESIAN_POINT( '', ( 41.5000000000000, 1.00000000000003, 0.000000000000000 ) );
#324 = AXIS2_PLACEMENT_3D( '', #382, #383, #384 );
#325 = CARTESIAN_POINT( '', ( -30.5000000000000, 1.00000000000003, 0.000000000000000 ) );
#326 = AXIS2_PLACEMENT_3D( '', #385, #386, #387 );
#327 = CARTESIAN_POINT( '', ( 78.0000000000000, 16.0000000000000, 0.000000000000000 ) );
#328 = CARTESIAN_POINT( '', ( -78.0000000000000, 16.0000000000000, 0.000000000000000 ) );
#329 = CARTESIAN_POINT( '', ( 78.0000000000000, 16.0000000000000, 0.000000000000000 ) );
#330 = VECTOR( '', #388, 1000.00000000000 );
#331 = CARTESIAN_POINT( '', ( 78.0000000000000, -16.0000000000000, 0.000000000000000 ) );
#332 = CARTESIAN_POINT( '', ( 78.0000000000000, -16.0000000000000, 0.000000000000000 ) );
#333 = VECTOR( '', #389, 1000.00000000000 );
#334 = CARTESIAN_POINT( '', ( -78.0000000000000, -16.0000000000000, 0.000000000000000 ) );
#335 = CARTESIAN_POINT( '', ( -78.0000000000000, -16.0000000000000, 0.000000000000000 ) );
#336 = VECTOR( '', #390, 1000.00000000000 );
#337 = CARTESIAN_POINT( '', ( -78.0000000000000, 16.0000000000000, 0.000000000000000 ) );
#338 = VECTOR( '', #391, 1000.00000000000 );
#339 = COLOUR_RGB( '', 0.752941191196442, 0.752941191196442, 0.752941191196442 );
#340 = CARTESIAN_POINT( '', ( -61.0000000000000, -8.99999999999998, 76.0000000000000 ) );
#341 = AXIS2_PLACEMENT_3D( '', #392, #393, #394 );
#342 = CARTESIAN_POINT( '', ( 61.0000000000000, -8.99999999999998, 76.0000000000000 ) );
#343 = AXIS2_PLACEMENT_3D( '', #395, #396, #397 );
#344 = CARTESIAN_POINT( '', ( 36.0000000000000, -4.49999999999997, 76.0000000000000 ) );
#345 = AXIS2_PLACEMENT_3D( '', #398, #399, #400 );
#346 = CARTESIAN_POINT( '', ( -36.0000000000000, -4.49999999999997, 76.0000000000000 ) );
#347 = AXIS2_PLACEMENT_3D( '', #401, #402, #403 );
#348 = CARTESIAN_POINT( '', ( 78.0000000000000, 16.0000000000000, 76.0000000000000 ) );
#349 = CARTESIAN_POINT( '', ( -78.0000000000000, 16.0000000000000, 76.0000000000000 ) );
#350 = CARTESIAN_POINT( '', ( 78.0000000000000, 16.0000000000000, 76.0000000000000 ) );
#351 = VECTOR( '', #404, 1000.00000000000 );
#352 = CARTESIAN_POINT( '', ( -78.0000000000000, -16.0000000000000, 76.0000000000000 ) );
#353 = CARTESIAN_POINT( '', ( -78.0000000000000, 16.0000000000000, 76.0000000000000 ) );
#354 = VECTOR( '', #405, 1000.00000000000 );
#355 = CARTESIAN_POINT( '', ( 78.0000000000000, -16.0000000000000, 76.0000000000000 ) );
#356 = CARTESIAN_POINT( '', ( -78.0000000000000, -16.0000000000000, 76.0000000000000 ) );
#357 = VECTOR( '', #406, 1000.00000000000 );
#358 = CARTESIAN_POINT( '', ( 78.0000000000000, -16.0000000000000, 76.0000000000000 ) );
#359 = VECTOR( '', #407, 1000.00000000000 );
#360 = COLOUR_RGB( '', 0.752941191196442, 0.752941191196442, 0.752941191196442 );
#361 = COLOUR_RGB( '', 0.752941191196442, 0.752941191196442, 0.752941191196442 );
#362 = COLOUR_RGB( '', 0.752941191196442, 0.752941191196442, 0.752941191196442 );
#363 = CARTESIAN_POINT( '', ( -78.0000000000000, -16.0000000000000, 76.0000000000000 ) );
#364 = VECTOR( '', #408, 1000.00000000000 );
#365 = CARTESIAN_POINT( '', ( -78.0000000000000, 16.0000000000000, 76.0000000000000 ) );
#366 = VECTOR( '', #409, 1000.00000000000 );
#367 = COLOUR_RGB( '', 0.752941191196442, 0.752941191196442, 0.752941191196442 );
#368 = CARTESIAN_POINT( '', ( 78.0000000000000, 16.0000000000000, 76.0000000000000 ) );
#369 = VECTOR( '', #410, 1000.00000000000 );
#370 = CARTESIAN_POINT( '', ( 78.0000000000000, -16.0000000000000, 76.0000000000000 ) );
#371 = VECTOR( '', #411, 1000.00000000000 );
#372 = COLOUR_RGB( '', 0.752941191196442, 0.752941191196442, 0.752941191196442 );
#373 = COLOUR_RGB( '', 0.752941191196442, 0.752941191196442, 0.752941191196442 );
#374 = COLOUR_RGB( '', 0.752941191196442, 0.752941191196442, 0.752941191196442 );
#375 = COLOUR_RGB( '', 0.752941191196442, 0.752941191196442, 0.752941191196442 );
#376 = CARTESIAN_POINT( '', ( -61.0000000000000, 1.00000000000002, 0.000000000000000 ) );
#377 = DIRECTION( '', ( 0.000000000000000, 0.000000000000000, 1.00000000000000 ) );
#378 = DIRECTION( '', ( 1.00000000000000, 0.000000000000000, 0.000000000000000 ) );
#379 = CARTESIAN_POINT( '', ( 61.0000000000000, 1.00000000000002, 0.000000000000000 ) );
#380 = DIRECTION( '', ( 0.000000000000000, 0.000000000000000, 1.00000000000000 ) );
#381 = DIRECTION( '', ( 1.00000000000000, 0.000000000000000, 0.000000000000000 ) );
#382 = CARTESIAN_POINT( '', ( 36.0000000000000, 1.00000000000003, 0.000000000000000 ) );
#383 = DIRECTION( '', ( 0.000000000000000, 0.000000000000000, 1.00000000000000 ) );
#384 = DIRECTION( '', ( 1.00000000000000, 0.000000000000000, 0.000000000000000 ) );
#385 = CARTESIAN_POINT( '', ( -36.0000000000000, 1.00000000000003, 0.000000000000000 ) );
#386 = DIRECTION( '', ( 0.000000000000000, 0.000000000000000, 1.00000000000000 ) );
#387 = DIRECTION( '', ( 1.00000000000000, 0.000000000000000, 0.000000000000000 ) );
#388 = DIRECTION( '', ( -1.00000000000000, 2.00160401074247E-016, 0.000000000000000 ) );
#389 = DIRECTION( '', ( -4.33680868994202E-016, 1.00000000000000, 0.000000000000000 ) );
#390 = DIRECTION( '', ( 1.00000000000000, -8.89601782552209E-017, 0.000000000000000 ) );
#391 = DIRECTION( '', ( 4.33680868994202E-016, -1.00000000000000, 0.000000000000000 ) );
#392 = CARTESIAN_POINT( '', ( -61.0000000000000, 1.00000000000002, 76.0000000000000 ) );
#393 = DIRECTION( '', ( 0.000000000000000, 0.000000000000000, -1.00000000000000 ) );
#394 = DIRECTION( '', ( 0.000000000000000, -1.00000000000000, 0.000000000000000 ) );
#395 = CARTESIAN_POINT( '', ( 61.0000000000000, 1.00000000000002, 76.0000000000000 ) );
#396 = DIRECTION( '', ( 0.000000000000000, 0.000000000000000, -1.00000000000000 ) );
#397 = DIRECTION( '', ( 0.000000000000000, -1.00000000000000, 0.000000000000000 ) );
#398 = CARTESIAN_POINT( '', ( 36.0000000000000, 1.00000000000003, 76.0000000000000 ) );
#399 = DIRECTION( '', ( 0.000000000000000, 0.000000000000000, -1.00000000000000 ) );
#400 = DIRECTION( '', ( 0.000000000000000, -1.00000000000000, 0.000000000000000 ) );
#401 = CARTESIAN_POINT( '', ( -36.0000000000000, 1.00000000000003, 76.0000000000000 ) );
#402 = DIRECTION( '', ( 0.000000000000000, 0.000000000000000, -1.00000000000000 ) );
#403 = DIRECTION( '', ( 0.000000000000000, -1.00000000000000, 0.000000000000000 ) );
#404 = DIRECTION( '', ( -1.00000000000000, 2.00160401074247E-016, 0.000000000000000 ) );
#405 = DIRECTION( '', ( 4.33680868994202E-016, -1.00000000000000, 0.000000000000000 ) );
#406 = DIRECTION( '', ( 1.00000000000000, -8.89601782552209E-017, 0.000000000000000 ) );
#407 = DIRECTION( '', ( -4.33680868994202E-016, 1.00000000000000, 0.000000000000000 ) );
#408 = DIRECTION( '', ( 0.000000000000000, 0.000000000000000, -1.00000000000000 ) );
#409 = DIRECTION( '', ( 0.000000000000000, 0.000000000000000, -1.00000000000000 ) );
#410 = DIRECTION( '', ( 0.000000000000000, 0.000000000000000, -1.00000000000000 ) );
#411 = DIRECTION( '', ( 0.000000000000000, 0.000000000000000, -1.00000000000000 ) );
ENDSEC;
END-ISO-10303-21;
