ISO-10303-21;
HEADER;
FILE_DESCRIPTION( ( 'Unknown' ), '1' );
FILE_NAME( 'M:/Piezas_3D/Placas_Par/G2/OS_G2_246x446x056_.stp', 'Unknown', ( 'Unknown' ), ( 'Unknown' ), 'PSStep 16.0.42', 'Unknown', '  ' );
FILE_SCHEMA( ( 'AUTOMOTIVE_DESIGN { 1 0 10303 214 1 1 1 1 }' ) );
ENDSEC;
DATA;
#1 = MECHANICAL_DESIGN_GEOMETRIC_PRESENTATION_REPRESENTATION( ' ', ( #10, #11, #12, #13, #14, #15, #16, #17, #18, #19 ), #6 );
#2 = PRODUCT_DEFINITION_CONTEXT( '', #20, 'design' );
#3 = APPLICATION_PROTOCOL_DEFINITION( 'international standard', 'automotive_design', 2001, #20 );
#4 = PRODUCT_CATEGORY_RELATIONSHIP( 'NONE', 'NONE', #21, #22 );
#5 = SHAPE_DEFINITION_REPRESENTATION( #23, #24 );
#6 =  ( GEOMETRIC_REPRESENTATION_CONTEXT( 3 )GLOBAL_UNCERTAINTY_ASSIGNED_CONTEXT( ( #27 ) )GLOBAL_UNIT_ASSIGNED_CONTEXT( ( #29, #30, #31 ) )REPRESENTATION_CONTEXT( 'NONE', 'WORKSPACE' ) );
#10 = STYLED_ITEM( '', ( #33 ), #34 );
#11 = STYLED_ITEM( '', ( #35 ), #36 );
#12 = STYLED_ITEM( '', ( #37 ), #38 );
#13 = STYLED_ITEM( '', ( #39 ), #40 );
#14 = STYLED_ITEM( '', ( #41 ), #42 );
#15 = STYLED_ITEM( '', ( #43 ), #44 );
#16 = STYLED_ITEM( '', ( #45 ), #46 );
#17 = STYLED_ITEM( '', ( #47 ), #48 );
#18 = STYLED_ITEM( '', ( #49 ), #50 );
#19 = STYLED_ITEM( '', ( #51 ), #52 );
#20 = APPLICATION_CONTEXT( 'core data for automotive mechanical design processes' );
#21 = PRODUCT_CATEGORY( 'part', 'NONE' );
#22 = PRODUCT_RELATED_PRODUCT_CATEGORY( 'detail', ' ', ( #53 ) );
#23 = PRODUCT_DEFINITION_SHAPE( 'NONE', 'NONE', #54 );
#24 = ADVANCED_BREP_SHAPE_REPRESENTATION( '1', ( #55, #56 ), #6 );
#27 = UNCERTAINTY_MEASURE_WITH_UNIT( LENGTH_MEASURE( 0.00100000000000000 ), #29, '', '' );
#29 =  ( CONVERSION_BASED_UNIT( 'MILLIMETRE', #59 )LENGTH_UNIT(  )NAMED_UNIT( #62 ) );
#30 =  ( NAMED_UNIT( #64 )PLANE_ANGLE_UNIT(  )SI_UNIT( $, .RADIAN. ) );
#31 =  ( NAMED_UNIT( #64 )SI_UNIT( $, .STERADIAN. )SOLID_ANGLE_UNIT(  ) );
#33 = PRESENTATION_STYLE_ASSIGNMENT( ( #70 ) );
#34 = ADVANCED_FACE( '', ( #71, #72, #73, #74, #75 ), #76, .T. );
#35 = PRESENTATION_STYLE_ASSIGNMENT( ( #77 ) );
#36 = ADVANCED_FACE( '', ( #78, #79 ), #80, .F. );
#37 = PRESENTATION_STYLE_ASSIGNMENT( ( #81 ) );
#38 = ADVANCED_FACE( '', ( #82, #83 ), #84, .F. );
#39 = PRESENTATION_STYLE_ASSIGNMENT( ( #85 ) );
#40 = ADVANCED_FACE( '', ( #86 ), #87, .F. );
#41 = PRESENTATION_STYLE_ASSIGNMENT( ( #88 ) );
#42 = ADVANCED_FACE( '', ( #89 ), #90, .F. );
#43 = PRESENTATION_STYLE_ASSIGNMENT( ( #91 ) );
#44 = ADVANCED_FACE( '', ( #92 ), #93, .F. );
#45 = PRESENTATION_STYLE_ASSIGNMENT( ( #94 ) );
#46 = ADVANCED_FACE( '', ( #95, #96 ), #97, .F. );
#47 = PRESENTATION_STYLE_ASSIGNMENT( ( #98 ) );
#48 = ADVANCED_FACE( '', ( #99, #100 ), #101, .F. );
#49 = PRESENTATION_STYLE_ASSIGNMENT( ( #102 ) );
#50 = ADVANCED_FACE( '', ( #103, #104, #105, #106, #107 ), #108, .F. );
#51 = PRESENTATION_STYLE_ASSIGNMENT( ( #109 ) );
#52 = ADVANCED_FACE( '', ( #110 ), #111, .F. );
#53 = PRODUCT( '1', '1', 'PART-1-DESC', ( #112 ) );
#54 = PRODUCT_DEFINITION( 'NONE', 'NONE', #113, #2 );
#55 = MANIFOLD_SOLID_BREP( '1', #114 );
#56 = AXIS2_PLACEMENT_3D( '', #115, #116, #117 );
#59 = LENGTH_MEASURE_WITH_UNIT( LENGTH_MEASURE( 1.00000000000000 ), #118 );
#62 = DIMENSIONAL_EXPONENTS( 1.00000000000000, 0.000000000000000, 0.000000000000000, 0.000000000000000, 0.000000000000000, 0.000000000000000, 0.000000000000000 );
#64 = DIMENSIONAL_EXPONENTS( 0.000000000000000, 0.000000000000000, 0.000000000000000, 0.000000000000000, 0.000000000000000, 0.000000000000000, 0.000000000000000 );
#70 = SURFACE_STYLE_USAGE( .BOTH., #119 );
#71 = FACE_BOUND( '', #120, .T. );
#72 = FACE_BOUND( '', #121, .T. );
#73 = FACE_BOUND( '', #122, .T. );
#74 = FACE_BOUND( '', #123, .T. );
#75 = FACE_OUTER_BOUND( '', #124, .T. );
#76 = PLANE( '', #125 );
#77 = SURFACE_STYLE_USAGE( .BOTH., #126 );
#78 = FACE_OUTER_BOUND( '', #127, .T. );
#79 = FACE_OUTER_BOUND( '', #128, .T. );
#80 = CYLINDRICAL_SURFACE( '', #129, 15.0000000000000 );
#81 = SURFACE_STYLE_USAGE( .BOTH., #130 );
#82 = FACE_OUTER_BOUND( '', #131, .T. );
#83 = FACE_OUTER_BOUND( '', #132, .T. );
#84 = CYLINDRICAL_SURFACE( '', #133, 15.0000000000000 );
#85 = SURFACE_STYLE_USAGE( .BOTH., #134 );
#86 = FACE_OUTER_BOUND( '', #135, .T. );
#87 = PLANE( '', #136 );
#88 = SURFACE_STYLE_USAGE( .BOTH., #137 );
#89 = FACE_OUTER_BOUND( '', #138, .T. );
#90 = PLANE( '', #139 );
#91 = SURFACE_STYLE_USAGE( .BOTH., #140 );
#92 = FACE_OUTER_BOUND( '', #141, .T. );
#93 = PLANE( '', #142 );
#94 = SURFACE_STYLE_USAGE( .BOTH., #143 );
#95 = FACE_OUTER_BOUND( '', #144, .T. );
#96 = FACE_OUTER_BOUND( '', #145, .T. );
#97 = CYLINDRICAL_SURFACE( '', #146, 7.00000000000000 );
#98 = SURFACE_STYLE_USAGE( .BOTH., #147 );
#99 = FACE_OUTER_BOUND( '', #148, .T. );
#100 = FACE_OUTER_BOUND( '', #149, .T. );
#101 = CYLINDRICAL_SURFACE( '', #150, 7.00000000000000 );
#102 = SURFACE_STYLE_USAGE( .BOTH., #151 );
#103 = FACE_BOUND( '', #152, .T. );
#104 = FACE_BOUND( '', #153, .T. );
#105 = FACE_BOUND( '', #154, .T. );
#106 = FACE_BOUND( '', #155, .T. );
#107 = FACE_OUTER_BOUND( '', #156, .T. );
#108 = PLANE( '', #157 );
#109 = SURFACE_STYLE_USAGE( .BOTH., #158 );
#110 = FACE_OUTER_BOUND( '', #159, .T. );
#111 = PLANE( '', #160 );
#112 = PRODUCT_CONTEXT( '', #20, 'mechanical' );
#113 = PRODUCT_DEFINITION_FORMATION_WITH_SPECIFIED_SOURCE( ' ', 'NONE', #53, .NOT_KNOWN. );
#114 = CLOSED_SHELL( '', ( #48, #46, #34, #44, #42, #52, #50, #40, #36, #38 ) );
#115 = CARTESIAN_POINT( '', ( 0.000000000000000, 0.000000000000000, 0.000000000000000 ) );
#116 = DIRECTION( '', ( 0.000000000000000, 0.000000000000000, 1.00000000000000 ) );
#117 = DIRECTION( '', ( 1.00000000000000, 0.000000000000000, 0.000000000000000 ) );
#118 =  ( LENGTH_UNIT(  )NAMED_UNIT( #62 )SI_UNIT( .MILLI., .METRE. ) );
#119 = SURFACE_SIDE_STYLE( '', ( #162 ) );
#120 = EDGE_LOOP( '', ( #163 ) );
#121 = EDGE_LOOP( '', ( #164 ) );
#122 = EDGE_LOOP( '', ( #165 ) );
#123 = EDGE_LOOP( '', ( #166 ) );
#124 = EDGE_LOOP( '', ( #167, #168, #169, #170 ) );
#125 = AXIS2_PLACEMENT_3D( '', #171, #172, #173 );
#126 = SURFACE_SIDE_STYLE( '', ( #174 ) );
#127 = EDGE_LOOP( '', ( #175 ) );
#128 = EDGE_LOOP( '', ( #176 ) );
#129 = AXIS2_PLACEMENT_3D( '', #177, #178, #179 );
#130 = SURFACE_SIDE_STYLE( '', ( #180 ) );
#131 = EDGE_LOOP( '', ( #181 ) );
#132 = EDGE_LOOP( '', ( #182 ) );
#133 = AXIS2_PLACEMENT_3D( '', #183, #184, #185 );
#134 = SURFACE_SIDE_STYLE( '', ( #186 ) );
#135 = EDGE_LOOP( '', ( #187, #188, #189, #190 ) );
#136 = AXIS2_PLACEMENT_3D( '', #191, #192, #193 );
#137 = SURFACE_SIDE_STYLE( '', ( #194 ) );
#138 = EDGE_LOOP( '', ( #195, #196, #197, #198 ) );
#139 = AXIS2_PLACEMENT_3D( '', #199, #200, #201 );
#140 = SURFACE_SIDE_STYLE( '', ( #202 ) );
#141 = EDGE_LOOP( '', ( #203, #204, #205, #206 ) );
#142 = AXIS2_PLACEMENT_3D( '', #207, #208, #209 );
#143 = SURFACE_SIDE_STYLE( '', ( #210 ) );
#144 = EDGE_LOOP( '', ( #211 ) );
#145 = EDGE_LOOP( '', ( #212 ) );
#146 = AXIS2_PLACEMENT_3D( '', #213, #214, #215 );
#147 = SURFACE_SIDE_STYLE( '', ( #216 ) );
#148 = EDGE_LOOP( '', ( #217 ) );
#149 = EDGE_LOOP( '', ( #218 ) );
#150 = AXIS2_PLACEMENT_3D( '', #219, #220, #221 );
#151 = SURFACE_SIDE_STYLE( '', ( #222 ) );
#152 = EDGE_LOOP( '', ( #223 ) );
#153 = EDGE_LOOP( '', ( #224 ) );
#154 = EDGE_LOOP( '', ( #225 ) );
#155 = EDGE_LOOP( '', ( #226 ) );
#156 = EDGE_LOOP( '', ( #227, #228, #229, #230 ) );
#157 = AXIS2_PLACEMENT_3D( '', #231, #232, #233 );
#158 = SURFACE_SIDE_STYLE( '', ( #234 ) );
#159 = EDGE_LOOP( '', ( #235, #236, #237, #238 ) );
#160 = AXIS2_PLACEMENT_3D( '', #239, #240, #241 );
#162 = SURFACE_STYLE_FILL_AREA( #242 );
#163 = ORIENTED_EDGE( '', *, *, #243, .F. );
#164 = ORIENTED_EDGE( '', *, *, #244, .F. );
#165 = ORIENTED_EDGE( '', *, *, #245, .F. );
#166 = ORIENTED_EDGE( '', *, *, #246, .F. );
#167 = ORIENTED_EDGE( '', *, *, #247, .F. );
#168 = ORIENTED_EDGE( '', *, *, #248, .F. );
#169 = ORIENTED_EDGE( '', *, *, #249, .F. );
#170 = ORIENTED_EDGE( '', *, *, #250, .F. );
#171 = CARTESIAN_POINT( '', ( 223.000000000000, 21.5000000000000, 0.000000000000000 ) );
#172 = DIRECTION( '', ( 0.000000000000000, 0.000000000000000, -1.00000000000000 ) );
#173 = DIRECTION( '', ( -1.00000000000000, 0.000000000000000, 0.000000000000000 ) );
#174 = SURFACE_STYLE_FILL_AREA( #251 );
#175 = ORIENTED_EDGE( '', *, *, #244, .T. );
#176 = ORIENTED_EDGE( '', *, *, #252, .F. );
#177 = CARTESIAN_POINT( '', ( 197.000000000000, 4.50000000000006, 56.0000000000000 ) );
#178 = DIRECTION( '', ( -0.000000000000000, -0.000000000000000, 1.00000000000000 ) );
#179 = DIRECTION( '', ( 0.000000000000000, -1.00000000000000, 0.000000000000000 ) );
#180 = SURFACE_STYLE_FILL_AREA( #253 );
#181 = ORIENTED_EDGE( '', *, *, #243, .T. );
#182 = ORIENTED_EDGE( '', *, *, #254, .F. );
#183 = CARTESIAN_POINT( '', ( -197.000000000000, 4.50000000000006, 56.0000000000000 ) );
#184 = DIRECTION( '', ( -0.000000000000000, -0.000000000000000, 1.00000000000000 ) );
#185 = DIRECTION( '', ( 0.000000000000000, -1.00000000000000, 0.000000000000000 ) );
#186 = SURFACE_STYLE_FILL_AREA( #255 );
#187 = ORIENTED_EDGE( '', *, *, #249, .T. );
#188 = ORIENTED_EDGE( '', *, *, #256, .F. );
#189 = ORIENTED_EDGE( '', *, *, #257, .F. );
#190 = ORIENTED_EDGE( '', *, *, #258, .T. );
#191 = CARTESIAN_POINT( '', ( -223.000000000000, -21.5000000000000, 56.0000000000000 ) );
#192 = DIRECTION( '', ( 6.22322323220380E-017, 1.00000000000000, 0.000000000000000 ) );
#193 = DIRECTION( '', ( -1.00000000000000, 6.22322323220380E-017, 0.000000000000000 ) );
#194 = SURFACE_STYLE_FILL_AREA( #259 );
#195 = ORIENTED_EDGE( '', *, *, #250, .T. );
#196 = ORIENTED_EDGE( '', *, *, #258, .F. );
#197 = ORIENTED_EDGE( '', *, *, #260, .F. );
#198 = ORIENTED_EDGE( '', *, *, #261, .T. );
#199 = CARTESIAN_POINT( '', ( -223.000000000000, 21.5000000000000, 56.0000000000000 ) );
#200 = DIRECTION( '', ( 1.00000000000000, 6.45478502689045E-016, 0.000000000000000 ) );
#201 = DIRECTION( '', ( -6.45478502689045E-016, 1.00000000000000, 0.000000000000000 ) );
#202 = SURFACE_STYLE_FILL_AREA( #262 );
#203 = ORIENTED_EDGE( '', *, *, #247, .T. );
#204 = ORIENTED_EDGE( '', *, *, #261, .F. );
#205 = ORIENTED_EDGE( '', *, *, #263, .F. );
#206 = ORIENTED_EDGE( '', *, *, #264, .T. );
#207 = CARTESIAN_POINT( '', ( 223.000000000000, 21.5000000000000, 56.0000000000000 ) );
#208 = DIRECTION( '', ( -1.47801551764840E-016, -1.00000000000000, 0.000000000000000 ) );
#209 = DIRECTION( '', ( 1.00000000000000, -1.47801551764840E-016, 0.000000000000000 ) );
#210 = SURFACE_STYLE_FILL_AREA( #265 );
#211 = ORIENTED_EDGE( '', *, *, #245, .T. );
#212 = ORIENTED_EDGE( '', *, *, #266, .F. );
#213 = CARTESIAN_POINT( '', ( 162.000000000000, 4.50000000000008, 56.0000000000000 ) );
#214 = DIRECTION( '', ( -0.000000000000000, -0.000000000000000, 1.00000000000000 ) );
#215 = DIRECTION( '', ( 0.000000000000000, -1.00000000000000, 0.000000000000000 ) );
#216 = SURFACE_STYLE_FILL_AREA( #267 );
#217 = ORIENTED_EDGE( '', *, *, #246, .T. );
#218 = ORIENTED_EDGE( '', *, *, #268, .F. );
#219 = CARTESIAN_POINT( '', ( -162.000000000000, 4.50000000000000, 56.0000000000000 ) );
#220 = DIRECTION( '', ( -0.000000000000000, -0.000000000000000, 1.00000000000000 ) );
#221 = DIRECTION( '', ( 0.000000000000000, -1.00000000000000, 0.000000000000000 ) );
#222 = SURFACE_STYLE_FILL_AREA( #269 );
#223 = ORIENTED_EDGE( '', *, *, #254, .T. );
#224 = ORIENTED_EDGE( '', *, *, #252, .T. );
#225 = ORIENTED_EDGE( '', *, *, #266, .T. );
#226 = ORIENTED_EDGE( '', *, *, #268, .T. );
#227 = ORIENTED_EDGE( '', *, *, #263, .T. );
#228 = ORIENTED_EDGE( '', *, *, #260, .T. );
#229 = ORIENTED_EDGE( '', *, *, #257, .T. );
#230 = ORIENTED_EDGE( '', *, *, #270, .T. );
#231 = CARTESIAN_POINT( '', ( 223.000000000000, 21.5000000000000, 56.0000000000000 ) );
#232 = DIRECTION( '', ( 0.000000000000000, 0.000000000000000, -1.00000000000000 ) );
#233 = DIRECTION( '', ( -1.00000000000000, 0.000000000000000, 0.000000000000000 ) );
#234 = SURFACE_STYLE_FILL_AREA( #271 );
#235 = ORIENTED_EDGE( '', *, *, #248, .T. );
#236 = ORIENTED_EDGE( '', *, *, #264, .F. );
#237 = ORIENTED_EDGE( '', *, *, #270, .F. );
#238 = ORIENTED_EDGE( '', *, *, #256, .T. );
#239 = CARTESIAN_POINT( '', ( 223.000000000000, -21.5000000000000, 56.0000000000000 ) );
#240 = DIRECTION( '', ( -1.00000000000000, 0.000000000000000, 0.000000000000000 ) );
#241 = DIRECTION( '', ( 0.000000000000000, 0.000000000000000, 1.00000000000000 ) );
#242 = FILL_AREA_STYLE( '', ( #272 ) );
#243 = EDGE_CURVE( '', #273, #273, #274, .T. );
#244 = EDGE_CURVE( '', #275, #275, #276, .T. );
#245 = EDGE_CURVE( '', #277, #277, #278, .T. );
#246 = EDGE_CURVE( '', #279, #279, #280, .T. );
#247 = EDGE_CURVE( '', #281, #282, #283, .T. );
#248 = EDGE_CURVE( '', #284, #281, #285, .T. );
#249 = EDGE_CURVE( '', #286, #284, #287, .T. );
#250 = EDGE_CURVE( '', #282, #286, #288, .T. );
#251 = FILL_AREA_STYLE( '', ( #289 ) );
#252 = EDGE_CURVE( '', #290, #290, #291, .T. );
#253 = FILL_AREA_STYLE( '', ( #292 ) );
#254 = EDGE_CURVE( '', #293, #293, #294, .T. );
#255 = FILL_AREA_STYLE( '', ( #295 ) );
#256 = EDGE_CURVE( '', #296, #284, #297, .T. );
#257 = EDGE_CURVE( '', #298, #296, #299, .T. );
#258 = EDGE_CURVE( '', #298, #286, #300, .T. );
#259 = FILL_AREA_STYLE( '', ( #301 ) );
#260 = EDGE_CURVE( '', #302, #298, #303, .T. );
#261 = EDGE_CURVE( '', #302, #282, #304, .T. );
#262 = FILL_AREA_STYLE( '', ( #305 ) );
#263 = EDGE_CURVE( '', #306, #302, #307, .T. );
#264 = EDGE_CURVE( '', #306, #281, #308, .T. );
#265 = FILL_AREA_STYLE( '', ( #309 ) );
#266 = EDGE_CURVE( '', #310, #310, #311, .T. );
#267 = FILL_AREA_STYLE( '', ( #312 ) );
#268 = EDGE_CURVE( '', #313, #313, #314, .T. );
#269 = FILL_AREA_STYLE( '', ( #315 ) );
#270 = EDGE_CURVE( '', #296, #306, #316, .T. );
#271 = FILL_AREA_STYLE( '', ( #317 ) );
#272 = FILL_AREA_STYLE_COLOUR( '', #318 );
#273 = VERTEX_POINT( '', #319 );
#274 = CIRCLE( '', #320, 15.0000000000000 );
#275 = VERTEX_POINT( '', #321 );
#276 = CIRCLE( '', #322, 15.0000000000000 );
#277 = VERTEX_POINT( '', #323 );
#278 = CIRCLE( '', #324, 7.00000000000000 );
#279 = VERTEX_POINT( '', #325 );
#280 = CIRCLE( '', #326, 7.00000000000000 );
#281 = VERTEX_POINT( '', #327 );
#282 = VERTEX_POINT( '', #328 );
#283 = LINE( '', #329, #330 );
#284 = VERTEX_POINT( '', #331 );
#285 = LINE( '', #332, #333 );
#286 = VERTEX_POINT( '', #334 );
#287 = LINE( '', #335, #336 );
#288 = LINE( '', #337, #338 );
#289 = FILL_AREA_STYLE_COLOUR( '', #339 );
#290 = VERTEX_POINT( '', #340 );
#291 = CIRCLE( '', #341, 15.0000000000000 );
#292 = FILL_AREA_STYLE_COLOUR( '', #342 );
#293 = VERTEX_POINT( '', #343 );
#294 = CIRCLE( '', #344, 15.0000000000000 );
#295 = FILL_AREA_STYLE_COLOUR( '', #345 );
#296 = VERTEX_POINT( '', #346 );
#297 = LINE( '', #347, #348 );
#298 = VERTEX_POINT( '', #349 );
#299 = LINE( '', #350, #351 );
#300 = LINE( '', #352, #353 );
#301 = FILL_AREA_STYLE_COLOUR( '', #354 );
#302 = VERTEX_POINT( '', #355 );
#303 = LINE( '', #356, #357 );
#304 = LINE( '', #358, #359 );
#305 = FILL_AREA_STYLE_COLOUR( '', #360 );
#306 = VERTEX_POINT( '', #361 );
#307 = LINE( '', #362, #363 );
#308 = LINE( '', #364, #365 );
#309 = FILL_AREA_STYLE_COLOUR( '', #366 );
#310 = VERTEX_POINT( '', #367 );
#311 = CIRCLE( '', #368, 7.00000000000000 );
#312 = FILL_AREA_STYLE_COLOUR( '', #369 );
#313 = VERTEX_POINT( '', #370 );
#314 = CIRCLE( '', #371, 7.00000000000000 );
#315 = FILL_AREA_STYLE_COLOUR( '', #372 );
#316 = LINE( '', #373, #374 );
#317 = FILL_AREA_STYLE_COLOUR( '', #375 );
#318 = COLOUR_RGB( '', 0.752941191196442, 0.752941191196442, 0.752941191196442 );
#319 = CARTESIAN_POINT( '', ( -212.000000000000, 4.50000000000006, 0.000000000000000 ) );
#320 = AXIS2_PLACEMENT_3D( '', #376, #377, #378 );
#321 = CARTESIAN_POINT( '', ( 182.000000000000, 4.50000000000006, 0.000000000000000 ) );
#322 = AXIS2_PLACEMENT_3D( '', #379, #380, #381 );
#323 = CARTESIAN_POINT( '', ( 155.000000000000, 4.50000000000008, 0.000000000000000 ) );
#324 = AXIS2_PLACEMENT_3D( '', #382, #383, #384 );
#325 = CARTESIAN_POINT( '', ( -169.000000000000, 4.50000000000000, 0.000000000000000 ) );
#326 = AXIS2_PLACEMENT_3D( '', #385, #386, #387 );
#327 = CARTESIAN_POINT( '', ( 223.000000000000, 21.5000000000000, 0.000000000000000 ) );
#328 = CARTESIAN_POINT( '', ( -223.000000000000, 21.5000000000000, 0.000000000000000 ) );
#329 = CARTESIAN_POINT( '', ( 223.000000000000, 21.5000000000000, 0.000000000000000 ) );
#330 = VECTOR( '', #388, 1000.00000000000 );
#331 = CARTESIAN_POINT( '', ( 223.000000000000, -21.5000000000000, 0.000000000000000 ) );
#332 = CARTESIAN_POINT( '', ( 223.000000000000, -21.5000000000000, 0.000000000000000 ) );
#333 = VECTOR( '', #389, 1000.00000000000 );
#334 = CARTESIAN_POINT( '', ( -223.000000000000, -21.5000000000000, 0.000000000000000 ) );
#335 = CARTESIAN_POINT( '', ( -223.000000000000, -21.5000000000000, 0.000000000000000 ) );
#336 = VECTOR( '', #390, 1000.00000000000 );
#337 = CARTESIAN_POINT( '', ( -223.000000000000, 21.5000000000000, 0.000000000000000 ) );
#338 = VECTOR( '', #391, 1000.00000000000 );
#339 = COLOUR_RGB( '', 0.752941191196442, 0.752941191196442, 0.752941191196442 );
#340 = CARTESIAN_POINT( '', ( 197.000000000000, -10.4999999999999, 56.0000000000000 ) );
#341 = AXIS2_PLACEMENT_3D( '', #392, #393, #394 );
#342 = COLOUR_RGB( '', 0.752941191196442, 0.752941191196442, 0.752941191196442 );
#343 = CARTESIAN_POINT( '', ( -197.000000000000, -10.4999999999999, 56.0000000000000 ) );
#344 = AXIS2_PLACEMENT_3D( '', #395, #396, #397 );
#345 = COLOUR_RGB( '', 0.752941191196442, 0.752941191196442, 0.752941191196442 );
#346 = CARTESIAN_POINT( '', ( 223.000000000000, -21.5000000000000, 56.0000000000000 ) );
#347 = CARTESIAN_POINT( '', ( 223.000000000000, -21.5000000000000, 56.0000000000000 ) );
#348 = VECTOR( '', #398, 1000.00000000000 );
#349 = CARTESIAN_POINT( '', ( -223.000000000000, -21.5000000000000, 56.0000000000000 ) );
#350 = CARTESIAN_POINT( '', ( -223.000000000000, -21.5000000000000, 56.0000000000000 ) );
#351 = VECTOR( '', #399, 1000.00000000000 );
#352 = CARTESIAN_POINT( '', ( -223.000000000000, -21.5000000000000, 56.0000000000000 ) );
#353 = VECTOR( '', #400, 1000.00000000000 );
#354 = COLOUR_RGB( '', 0.752941191196442, 0.752941191196442, 0.752941191196442 );
#355 = CARTESIAN_POINT( '', ( -223.000000000000, 21.5000000000000, 56.0000000000000 ) );
#356 = CARTESIAN_POINT( '', ( -223.000000000000, 21.5000000000000, 56.0000000000000 ) );
#357 = VECTOR( '', #401, 1000.00000000000 );
#358 = CARTESIAN_POINT( '', ( -223.000000000000, 21.5000000000000, 56.0000000000000 ) );
#359 = VECTOR( '', #402, 1000.00000000000 );
#360 = COLOUR_RGB( '', 0.752941191196442, 0.752941191196442, 0.752941191196442 );
#361 = CARTESIAN_POINT( '', ( 223.000000000000, 21.5000000000000, 56.0000000000000 ) );
#362 = CARTESIAN_POINT( '', ( 223.000000000000, 21.5000000000000, 56.0000000000000 ) );
#363 = VECTOR( '', #403, 1000.00000000000 );
#364 = CARTESIAN_POINT( '', ( 223.000000000000, 21.5000000000000, 56.0000000000000 ) );
#365 = VECTOR( '', #404, 1000.00000000000 );
#366 = COLOUR_RGB( '', 0.752941191196442, 0.752941191196442, 0.752941191196442 );
#367 = CARTESIAN_POINT( '', ( 162.000000000000, -2.49999999999992, 56.0000000000000 ) );
#368 = AXIS2_PLACEMENT_3D( '', #405, #406, #407 );
#369 = COLOUR_RGB( '', 0.752941191196442, 0.752941191196442, 0.752941191196442 );
#370 = CARTESIAN_POINT( '', ( -162.000000000000, -2.50000000000000, 56.0000000000000 ) );
#371 = AXIS2_PLACEMENT_3D( '', #408, #409, #410 );
#372 = COLOUR_RGB( '', 0.752941191196442, 0.752941191196442, 0.752941191196442 );
#373 = CARTESIAN_POINT( '', ( 223.000000000000, -21.5000000000000, 56.0000000000000 ) );
#374 = VECTOR( '', #411, 1000.00000000000 );
#375 = COLOUR_RGB( '', 0.752941191196442, 0.752941191196442, 0.752941191196442 );
#376 = CARTESIAN_POINT( '', ( -197.000000000000, 4.50000000000006, 0.000000000000000 ) );
#377 = DIRECTION( '', ( 0.000000000000000, 0.000000000000000, -1.00000000000000 ) );
#378 = DIRECTION( '', ( -1.00000000000000, 0.000000000000000, 0.000000000000000 ) );
#379 = CARTESIAN_POINT( '', ( 197.000000000000, 4.50000000000006, 0.000000000000000 ) );
#380 = DIRECTION( '', ( 0.000000000000000, 0.000000000000000, -1.00000000000000 ) );
#381 = DIRECTION( '', ( -1.00000000000000, 0.000000000000000, 0.000000000000000 ) );
#382 = CARTESIAN_POINT( '', ( 162.000000000000, 4.50000000000008, 0.000000000000000 ) );
#383 = DIRECTION( '', ( 0.000000000000000, 0.000000000000000, -1.00000000000000 ) );
#384 = DIRECTION( '', ( -1.00000000000000, 0.000000000000000, 0.000000000000000 ) );
#385 = CARTESIAN_POINT( '', ( -162.000000000000, 4.50000000000000, 0.000000000000000 ) );
#386 = DIRECTION( '', ( 0.000000000000000, 0.000000000000000, -1.00000000000000 ) );
#387 = DIRECTION( '', ( -1.00000000000000, 0.000000000000000, 0.000000000000000 ) );
#388 = DIRECTION( '', ( -1.00000000000000, 1.47801551764840E-016, 0.000000000000000 ) );
#389 = DIRECTION( '', ( 0.000000000000000, 1.00000000000000, 0.000000000000000 ) );
#390 = DIRECTION( '', ( 1.00000000000000, -6.22322323220379E-017, 0.000000000000000 ) );
#391 = DIRECTION( '', ( 6.45478502689045E-016, -1.00000000000000, 0.000000000000000 ) );
#392 = CARTESIAN_POINT( '', ( 197.000000000000, 4.50000000000006, 56.0000000000000 ) );
#393 = DIRECTION( '', ( 0.000000000000000, 0.000000000000000, -1.00000000000000 ) );
#394 = DIRECTION( '', ( 0.000000000000000, -1.00000000000000, 0.000000000000000 ) );
#395 = CARTESIAN_POINT( '', ( -197.000000000000, 4.50000000000006, 56.0000000000000 ) );
#396 = DIRECTION( '', ( 0.000000000000000, 0.000000000000000, -1.00000000000000 ) );
#397 = DIRECTION( '', ( 0.000000000000000, -1.00000000000000, 0.000000000000000 ) );
#398 = DIRECTION( '', ( 0.000000000000000, 0.000000000000000, -1.00000000000000 ) );
#399 = DIRECTION( '', ( 1.00000000000000, -6.22322323220379E-017, 0.000000000000000 ) );
#400 = DIRECTION( '', ( 0.000000000000000, 0.000000000000000, -1.00000000000000 ) );
#401 = DIRECTION( '', ( 6.45478502689045E-016, -1.00000000000000, 0.000000000000000 ) );
#402 = DIRECTION( '', ( 0.000000000000000, 0.000000000000000, -1.00000000000000 ) );
#403 = DIRECTION( '', ( -1.00000000000000, 1.47801551764840E-016, 0.000000000000000 ) );
#404 = DIRECTION( '', ( 0.000000000000000, 0.000000000000000, -1.00000000000000 ) );
#405 = CARTESIAN_POINT( '', ( 162.000000000000, 4.50000000000008, 56.0000000000000 ) );
#406 = DIRECTION( '', ( 0.000000000000000, 0.000000000000000, -1.00000000000000 ) );
#407 = DIRECTION( '', ( 0.000000000000000, -1.00000000000000, 0.000000000000000 ) );
#408 = CARTESIAN_POINT( '', ( -162.000000000000, 4.50000000000000, 56.0000000000000 ) );
#409 = DIRECTION( '', ( 0.000000000000000, 0.000000000000000, -1.00000000000000 ) );
#410 = DIRECTION( '', ( 0.000000000000000, -1.00000000000000, 0.000000000000000 ) );
#411 = DIRECTION( '', ( 0.000000000000000, 1.00000000000000, 0.000000000000000 ) );
ENDSEC;
END-ISO-10303-21;
