ISO-10303-21;
HEADER;
FILE_DESCRIPTION( ( 'Unknown' ), '1' );
FILE_NAME( 'M:/Piezas_3D/Placas_Par/G2/OS_G2_246x446x076_.stp', 'Unknown', ( 'Unknown' ), ( 'Unknown' ), 'PSStep 16.0.42', 'Unknown', '  ' );
FILE_SCHEMA( ( 'AUTOMOTIVE_DESIGN { 1 0 10303 214 1 1 1 1 }' ) );
ENDSEC;
DATA;
#1 = MECHANICAL_DESIGN_GEOMETRIC_PRESENTATION_REPRESENTATION( ' ', ( #10, #11, #12, #13, #14, #15, #16, #17, #18, #19 ), #6 );
#2 = PRODUCT_DEFINITION_CONTEXT( '', #20, 'design' );
#3 = APPLICATION_PROTOCOL_DEFINITION( 'international standard', 'automotive_design', 2001, #20 );
#4 = PRODUCT_CATEGORY_RELATIONSHIP( 'NONE', 'NONE', #21, #22 );
#5 = SHAPE_DEFINITION_REPRESENTATION( #23, #24 );
#6 =  ( GEOMETRIC_REPRESENTATION_CONTEXT( 3 )GLOBAL_UNCERTAINTY_ASSIGNED_CONTEXT( ( #27 ) )GLOBAL_UNIT_ASSIGNED_CONTEXT( ( #29, #30, #31 ) )REPRESENTATION_CONTEXT( 'NONE', 'WORKSPACE' ) );
#10 = STYLED_ITEM( '', ( #33 ), #34 );
#11 = STYLED_ITEM( '', ( #35 ), #36 );
#12 = STYLED_ITEM( '', ( #37 ), #38 );
#13 = STYLED_ITEM( '', ( #39 ), #40 );
#14 = STYLED_ITEM( '', ( #41 ), #42 );
#15 = STYLED_ITEM( '', ( #43 ), #44 );
#16 = STYLED_ITEM( '', ( #45 ), #46 );
#17 = STYLED_ITEM( '', ( #47 ), #48 );
#18 = STYLED_ITEM( '', ( #49 ), #50 );
#19 = STYLED_ITEM( '', ( #51 ), #52 );
#20 = APPLICATION_CONTEXT( 'core data for automotive mechanical design processes' );
#21 = PRODUCT_CATEGORY( 'part', 'NONE' );
#22 = PRODUCT_RELATED_PRODUCT_CATEGORY( 'detail', ' ', ( #53 ) );
#23 = PRODUCT_DEFINITION_SHAPE( 'NONE', 'NONE', #54 );
#24 = ADVANCED_BREP_SHAPE_REPRESENTATION( '1', ( #55, #56 ), #6 );
#27 = UNCERTAINTY_MEASURE_WITH_UNIT( LENGTH_MEASURE( 0.00100000000000000 ), #29, '', '' );
#29 =  ( CONVERSION_BASED_UNIT( 'MILLIMETRE', #59 )LENGTH_UNIT(  )NAMED_UNIT( #62 ) );
#30 =  ( NAMED_UNIT( #64 )PLANE_ANGLE_UNIT(  )SI_UNIT( $, .RADIAN. ) );
#31 =  ( NAMED_UNIT( #64 )SI_UNIT( $, .STERADIAN. )SOLID_ANGLE_UNIT(  ) );
#33 = PRESENTATION_STYLE_ASSIGNMENT( ( #70 ) );
#34 = ADVANCED_FACE( '', ( #71 ), #72, .F. );
#35 = PRESENTATION_STYLE_ASSIGNMENT( ( #73 ) );
#36 = ADVANCED_FACE( '', ( #74, #75, #76, #77, #78 ), #79, .F. );
#37 = PRESENTATION_STYLE_ASSIGNMENT( ( #80 ) );
#38 = ADVANCED_FACE( '', ( #81, #82 ), #83, .F. );
#39 = PRESENTATION_STYLE_ASSIGNMENT( ( #84 ) );
#40 = ADVANCED_FACE( '', ( #85 ), #86, .F. );
#41 = PRESENTATION_STYLE_ASSIGNMENT( ( #87 ) );
#42 = ADVANCED_FACE( '', ( #88, #89 ), #90, .F. );
#43 = PRESENTATION_STYLE_ASSIGNMENT( ( #91 ) );
#44 = ADVANCED_FACE( '', ( #92 ), #93, .F. );
#45 = PRESENTATION_STYLE_ASSIGNMENT( ( #94 ) );
#46 = ADVANCED_FACE( '', ( #95, #96 ), #97, .F. );
#47 = PRESENTATION_STYLE_ASSIGNMENT( ( #98 ) );
#48 = ADVANCED_FACE( '', ( #99 ), #100, .F. );
#49 = PRESENTATION_STYLE_ASSIGNMENT( ( #101 ) );
#50 = ADVANCED_FACE( '', ( #102, #103 ), #104, .F. );
#51 = PRESENTATION_STYLE_ASSIGNMENT( ( #105 ) );
#52 = ADVANCED_FACE( '', ( #106, #107, #108, #109, #110 ), #111, .T. );
#53 = PRODUCT( '1', '1', 'PART-1-DESC', ( #112 ) );
#54 = PRODUCT_DEFINITION( 'NONE', 'NONE', #113, #2 );
#55 = MANIFOLD_SOLID_BREP( '1', #114 );
#56 = AXIS2_PLACEMENT_3D( '', #115, #116, #117 );
#59 = LENGTH_MEASURE_WITH_UNIT( LENGTH_MEASURE( 1.00000000000000 ), #118 );
#62 = DIMENSIONAL_EXPONENTS( 1.00000000000000, 0.000000000000000, 0.000000000000000, 0.000000000000000, 0.000000000000000, 0.000000000000000, 0.000000000000000 );
#64 = DIMENSIONAL_EXPONENTS( 0.000000000000000, 0.000000000000000, 0.000000000000000, 0.000000000000000, 0.000000000000000, 0.000000000000000, 0.000000000000000 );
#70 = SURFACE_STYLE_USAGE( .BOTH., #119 );
#71 = FACE_OUTER_BOUND( '', #120, .T. );
#72 = PLANE( '', #121 );
#73 = SURFACE_STYLE_USAGE( .BOTH., #122 );
#74 = FACE_BOUND( '', #123, .T. );
#75 = FACE_BOUND( '', #124, .T. );
#76 = FACE_BOUND( '', #125, .T. );
#77 = FACE_BOUND( '', #126, .T. );
#78 = FACE_OUTER_BOUND( '', #127, .T. );
#79 = PLANE( '', #128 );
#80 = SURFACE_STYLE_USAGE( .BOTH., #129 );
#81 = FACE_OUTER_BOUND( '', #130, .T. );
#82 = FACE_OUTER_BOUND( '', #131, .T. );
#83 = CYLINDRICAL_SURFACE( '', #132, 15.0000000000000 );
#84 = SURFACE_STYLE_USAGE( .BOTH., #133 );
#85 = FACE_OUTER_BOUND( '', #134, .T. );
#86 = PLANE( '', #135 );
#87 = SURFACE_STYLE_USAGE( .BOTH., #136 );
#88 = FACE_OUTER_BOUND( '', #137, .T. );
#89 = FACE_OUTER_BOUND( '', #138, .T. );
#90 = CYLINDRICAL_SURFACE( '', #139, 15.0000000000000 );
#91 = SURFACE_STYLE_USAGE( .BOTH., #140 );
#92 = FACE_OUTER_BOUND( '', #141, .T. );
#93 = PLANE( '', #142 );
#94 = SURFACE_STYLE_USAGE( .BOTH., #143 );
#95 = FACE_OUTER_BOUND( '', #144, .T. );
#96 = FACE_OUTER_BOUND( '', #145, .T. );
#97 = CYLINDRICAL_SURFACE( '', #146, 7.00000000000000 );
#98 = SURFACE_STYLE_USAGE( .BOTH., #147 );
#99 = FACE_OUTER_BOUND( '', #148, .T. );
#100 = PLANE( '', #149 );
#101 = SURFACE_STYLE_USAGE( .BOTH., #150 );
#102 = FACE_OUTER_BOUND( '', #151, .T. );
#103 = FACE_OUTER_BOUND( '', #152, .T. );
#104 = CYLINDRICAL_SURFACE( '', #153, 7.00000000000000 );
#105 = SURFACE_STYLE_USAGE( .BOTH., #154 );
#106 = FACE_BOUND( '', #155, .T. );
#107 = FACE_BOUND( '', #156, .T. );
#108 = FACE_BOUND( '', #157, .T. );
#109 = FACE_BOUND( '', #158, .T. );
#110 = FACE_OUTER_BOUND( '', #159, .T. );
#111 = PLANE( '', #160 );
#112 = PRODUCT_CONTEXT( '', #20, 'mechanical' );
#113 = PRODUCT_DEFINITION_FORMATION_WITH_SPECIFIED_SOURCE( ' ', 'NONE', #53, .NOT_KNOWN. );
#114 = CLOSED_SHELL( '', ( #46, #50, #52, #44, #34, #48, #36, #40, #42, #38 ) );
#115 = CARTESIAN_POINT( '', ( 0.000000000000000, 0.000000000000000, 0.000000000000000 ) );
#116 = DIRECTION( '', ( 0.000000000000000, 0.000000000000000, 1.00000000000000 ) );
#117 = DIRECTION( '', ( 1.00000000000000, 0.000000000000000, 0.000000000000000 ) );
#118 =  ( LENGTH_UNIT(  )NAMED_UNIT( #62 )SI_UNIT( .MILLI., .METRE. ) );
#119 = SURFACE_SIDE_STYLE( '', ( #162 ) );
#120 = EDGE_LOOP( '', ( #163, #164, #165, #166 ) );
#121 = AXIS2_PLACEMENT_3D( '', #167, #168, #169 );
#122 = SURFACE_SIDE_STYLE( '', ( #170 ) );
#123 = EDGE_LOOP( '', ( #171 ) );
#124 = EDGE_LOOP( '', ( #172 ) );
#125 = EDGE_LOOP( '', ( #173 ) );
#126 = EDGE_LOOP( '', ( #174 ) );
#127 = EDGE_LOOP( '', ( #175, #176, #177, #178 ) );
#128 = AXIS2_PLACEMENT_3D( '', #179, #180, #181 );
#129 = SURFACE_SIDE_STYLE( '', ( #182 ) );
#130 = EDGE_LOOP( '', ( #183 ) );
#131 = EDGE_LOOP( '', ( #184 ) );
#132 = AXIS2_PLACEMENT_3D( '', #185, #186, #187 );
#133 = SURFACE_SIDE_STYLE( '', ( #188 ) );
#134 = EDGE_LOOP( '', ( #189, #190, #191, #192 ) );
#135 = AXIS2_PLACEMENT_3D( '', #193, #194, #195 );
#136 = SURFACE_SIDE_STYLE( '', ( #196 ) );
#137 = EDGE_LOOP( '', ( #197 ) );
#138 = EDGE_LOOP( '', ( #198 ) );
#139 = AXIS2_PLACEMENT_3D( '', #199, #200, #201 );
#140 = SURFACE_SIDE_STYLE( '', ( #202 ) );
#141 = EDGE_LOOP( '', ( #203, #204, #205, #206 ) );
#142 = AXIS2_PLACEMENT_3D( '', #207, #208, #209 );
#143 = SURFACE_SIDE_STYLE( '', ( #210 ) );
#144 = EDGE_LOOP( '', ( #211 ) );
#145 = EDGE_LOOP( '', ( #212 ) );
#146 = AXIS2_PLACEMENT_3D( '', #213, #214, #215 );
#147 = SURFACE_SIDE_STYLE( '', ( #216 ) );
#148 = EDGE_LOOP( '', ( #217, #218, #219, #220 ) );
#149 = AXIS2_PLACEMENT_3D( '', #221, #222, #223 );
#150 = SURFACE_SIDE_STYLE( '', ( #224 ) );
#151 = EDGE_LOOP( '', ( #225 ) );
#152 = EDGE_LOOP( '', ( #226 ) );
#153 = AXIS2_PLACEMENT_3D( '', #227, #228, #229 );
#154 = SURFACE_SIDE_STYLE( '', ( #230 ) );
#155 = EDGE_LOOP( '', ( #231 ) );
#156 = EDGE_LOOP( '', ( #232 ) );
#157 = EDGE_LOOP( '', ( #233 ) );
#158 = EDGE_LOOP( '', ( #234 ) );
#159 = EDGE_LOOP( '', ( #235, #236, #237, #238 ) );
#160 = AXIS2_PLACEMENT_3D( '', #239, #240, #241 );
#162 = SURFACE_STYLE_FILL_AREA( #242 );
#163 = ORIENTED_EDGE( '', *, *, #243, .T. );
#164 = ORIENTED_EDGE( '', *, *, #244, .F. );
#165 = ORIENTED_EDGE( '', *, *, #245, .F. );
#166 = ORIENTED_EDGE( '', *, *, #246, .T. );
#167 = CARTESIAN_POINT( '', ( -223.000000000000, 21.5000000000000, 76.0000000000000 ) );
#168 = DIRECTION( '', ( 1.00000000000000, 6.45478502689045E-016, 0.000000000000000 ) );
#169 = DIRECTION( '', ( -6.45478502689045E-016, 1.00000000000000, 0.000000000000000 ) );
#170 = SURFACE_STYLE_FILL_AREA( #247 );
#171 = ORIENTED_EDGE( '', *, *, #248, .T. );
#172 = ORIENTED_EDGE( '', *, *, #249, .T. );
#173 = ORIENTED_EDGE( '', *, *, #250, .T. );
#174 = ORIENTED_EDGE( '', *, *, #251, .T. );
#175 = ORIENTED_EDGE( '', *, *, #252, .T. );
#176 = ORIENTED_EDGE( '', *, *, #245, .T. );
#177 = ORIENTED_EDGE( '', *, *, #253, .T. );
#178 = ORIENTED_EDGE( '', *, *, #254, .T. );
#179 = CARTESIAN_POINT( '', ( 223.000000000000, 21.5000000000000, 76.0000000000000 ) );
#180 = DIRECTION( '', ( 0.000000000000000, 0.000000000000000, -1.00000000000000 ) );
#181 = DIRECTION( '', ( -1.00000000000000, 0.000000000000000, 0.000000000000000 ) );
#182 = SURFACE_STYLE_FILL_AREA( #255 );
#183 = ORIENTED_EDGE( '', *, *, #256, .T. );
#184 = ORIENTED_EDGE( '', *, *, #248, .F. );
#185 = CARTESIAN_POINT( '', ( -197.000000000000, 4.50000000000006, 76.0000000000000 ) );
#186 = DIRECTION( '', ( -0.000000000000000, -0.000000000000000, 1.00000000000000 ) );
#187 = DIRECTION( '', ( 0.000000000000000, -1.00000000000000, 0.000000000000000 ) );
#188 = SURFACE_STYLE_FILL_AREA( #257 );
#189 = ORIENTED_EDGE( '', *, *, #258, .T. );
#190 = ORIENTED_EDGE( '', *, *, #259, .F. );
#191 = ORIENTED_EDGE( '', *, *, #253, .F. );
#192 = ORIENTED_EDGE( '', *, *, #244, .T. );
#193 = CARTESIAN_POINT( '', ( -223.000000000000, -21.5000000000000, 76.0000000000000 ) );
#194 = DIRECTION( '', ( 6.22322323220379E-017, 1.00000000000000, 0.000000000000000 ) );
#195 = DIRECTION( '', ( -1.00000000000000, 6.22322323220379E-017, 0.000000000000000 ) );
#196 = SURFACE_STYLE_FILL_AREA( #260 );
#197 = ORIENTED_EDGE( '', *, *, #261, .T. );
#198 = ORIENTED_EDGE( '', *, *, #249, .F. );
#199 = CARTESIAN_POINT( '', ( 197.000000000000, 4.50000000000006, 76.0000000000000 ) );
#200 = DIRECTION( '', ( -0.000000000000000, -0.000000000000000, 1.00000000000000 ) );
#201 = DIRECTION( '', ( 0.000000000000000, -1.00000000000000, 0.000000000000000 ) );
#202 = SURFACE_STYLE_FILL_AREA( #262 );
#203 = ORIENTED_EDGE( '', *, *, #263, .T. );
#204 = ORIENTED_EDGE( '', *, *, #246, .F. );
#205 = ORIENTED_EDGE( '', *, *, #252, .F. );
#206 = ORIENTED_EDGE( '', *, *, #264, .T. );
#207 = CARTESIAN_POINT( '', ( 223.000000000000, 21.5000000000000, 76.0000000000000 ) );
#208 = DIRECTION( '', ( -1.47801551764840E-016, -1.00000000000000, 0.000000000000000 ) );
#209 = DIRECTION( '', ( 1.00000000000000, -1.47801551764840E-016, 0.000000000000000 ) );
#210 = SURFACE_STYLE_FILL_AREA( #265 );
#211 = ORIENTED_EDGE( '', *, *, #266, .T. );
#212 = ORIENTED_EDGE( '', *, *, #251, .F. );
#213 = CARTESIAN_POINT( '', ( -162.000000000000, 4.50000000000000, 76.0000000000000 ) );
#214 = DIRECTION( '', ( -0.000000000000000, -0.000000000000000, 1.00000000000000 ) );
#215 = DIRECTION( '', ( 0.000000000000000, -1.00000000000000, 0.000000000000000 ) );
#216 = SURFACE_STYLE_FILL_AREA( #267 );
#217 = ORIENTED_EDGE( '', *, *, #268, .T. );
#218 = ORIENTED_EDGE( '', *, *, #264, .F. );
#219 = ORIENTED_EDGE( '', *, *, #254, .F. );
#220 = ORIENTED_EDGE( '', *, *, #259, .T. );
#221 = CARTESIAN_POINT( '', ( 223.000000000000, -21.5000000000000, 76.0000000000000 ) );
#222 = DIRECTION( '', ( -1.00000000000000, 0.000000000000000, 0.000000000000000 ) );
#223 = DIRECTION( '', ( 0.000000000000000, 0.000000000000000, 1.00000000000000 ) );
#224 = SURFACE_STYLE_FILL_AREA( #269 );
#225 = ORIENTED_EDGE( '', *, *, #270, .T. );
#226 = ORIENTED_EDGE( '', *, *, #250, .F. );
#227 = CARTESIAN_POINT( '', ( 162.000000000000, 4.50000000000008, 76.0000000000000 ) );
#228 = DIRECTION( '', ( -0.000000000000000, -0.000000000000000, 1.00000000000000 ) );
#229 = DIRECTION( '', ( 0.000000000000000, -1.00000000000000, 0.000000000000000 ) );
#230 = SURFACE_STYLE_FILL_AREA( #271 );
#231 = ORIENTED_EDGE( '', *, *, #256, .F. );
#232 = ORIENTED_EDGE( '', *, *, #261, .F. );
#233 = ORIENTED_EDGE( '', *, *, #270, .F. );
#234 = ORIENTED_EDGE( '', *, *, #266, .F. );
#235 = ORIENTED_EDGE( '', *, *, #263, .F. );
#236 = ORIENTED_EDGE( '', *, *, #268, .F. );
#237 = ORIENTED_EDGE( '', *, *, #258, .F. );
#238 = ORIENTED_EDGE( '', *, *, #243, .F. );
#239 = CARTESIAN_POINT( '', ( 223.000000000000, 21.5000000000000, 0.000000000000000 ) );
#240 = DIRECTION( '', ( 0.000000000000000, 0.000000000000000, -1.00000000000000 ) );
#241 = DIRECTION( '', ( -1.00000000000000, 0.000000000000000, 0.000000000000000 ) );
#242 = FILL_AREA_STYLE( '', ( #272 ) );
#243 = EDGE_CURVE( '', #273, #274, #275, .T. );
#244 = EDGE_CURVE( '', #276, #274, #277, .T. );
#245 = EDGE_CURVE( '', #278, #276, #279, .T. );
#246 = EDGE_CURVE( '', #278, #273, #280, .T. );
#247 = FILL_AREA_STYLE( '', ( #281 ) );
#248 = EDGE_CURVE( '', #282, #282, #283, .T. );
#249 = EDGE_CURVE( '', #284, #284, #285, .T. );
#250 = EDGE_CURVE( '', #286, #286, #287, .T. );
#251 = EDGE_CURVE( '', #288, #288, #289, .T. );
#252 = EDGE_CURVE( '', #290, #278, #291, .T. );
#253 = EDGE_CURVE( '', #276, #292, #293, .T. );
#254 = EDGE_CURVE( '', #292, #290, #294, .T. );
#255 = FILL_AREA_STYLE( '', ( #295 ) );
#256 = EDGE_CURVE( '', #296, #296, #297, .T. );
#257 = FILL_AREA_STYLE( '', ( #298 ) );
#258 = EDGE_CURVE( '', #274, #299, #300, .T. );
#259 = EDGE_CURVE( '', #292, #299, #301, .T. );
#260 = FILL_AREA_STYLE( '', ( #302 ) );
#261 = EDGE_CURVE( '', #303, #303, #304, .T. );
#262 = FILL_AREA_STYLE( '', ( #305 ) );
#263 = EDGE_CURVE( '', #306, #273, #307, .T. );
#264 = EDGE_CURVE( '', #290, #306, #308, .T. );
#265 = FILL_AREA_STYLE( '', ( #309 ) );
#266 = EDGE_CURVE( '', #310, #310, #311, .T. );
#267 = FILL_AREA_STYLE( '', ( #312 ) );
#268 = EDGE_CURVE( '', #299, #306, #313, .T. );
#269 = FILL_AREA_STYLE( '', ( #314 ) );
#270 = EDGE_CURVE( '', #315, #315, #316, .T. );
#271 = FILL_AREA_STYLE( '', ( #317 ) );
#272 = FILL_AREA_STYLE_COLOUR( '', #318 );
#273 = VERTEX_POINT( '', #319 );
#274 = VERTEX_POINT( '', #320 );
#275 = LINE( '', #321, #322 );
#276 = VERTEX_POINT( '', #323 );
#277 = LINE( '', #324, #325 );
#278 = VERTEX_POINT( '', #326 );
#279 = LINE( '', #327, #328 );
#280 = LINE( '', #329, #330 );
#281 = FILL_AREA_STYLE_COLOUR( '', #331 );
#282 = VERTEX_POINT( '', #332 );
#283 = CIRCLE( '', #333, 15.0000000000000 );
#284 = VERTEX_POINT( '', #334 );
#285 = CIRCLE( '', #335, 15.0000000000000 );
#286 = VERTEX_POINT( '', #336 );
#287 = CIRCLE( '', #337, 7.00000000000000 );
#288 = VERTEX_POINT( '', #338 );
#289 = CIRCLE( '', #339, 7.00000000000000 );
#290 = VERTEX_POINT( '', #340 );
#291 = LINE( '', #341, #342 );
#292 = VERTEX_POINT( '', #343 );
#293 = LINE( '', #344, #345 );
#294 = LINE( '', #346, #347 );
#295 = FILL_AREA_STYLE_COLOUR( '', #348 );
#296 = VERTEX_POINT( '', #349 );
#297 = CIRCLE( '', #350, 15.0000000000000 );
#298 = FILL_AREA_STYLE_COLOUR( '', #351 );
#299 = VERTEX_POINT( '', #352 );
#300 = LINE( '', #353, #354 );
#301 = LINE( '', #355, #356 );
#302 = FILL_AREA_STYLE_COLOUR( '', #357 );
#303 = VERTEX_POINT( '', #358 );
#304 = CIRCLE( '', #359, 15.0000000000000 );
#305 = FILL_AREA_STYLE_COLOUR( '', #360 );
#306 = VERTEX_POINT( '', #361 );
#307 = LINE( '', #362, #363 );
#308 = LINE( '', #364, #365 );
#309 = FILL_AREA_STYLE_COLOUR( '', #366 );
#310 = VERTEX_POINT( '', #367 );
#311 = CIRCLE( '', #368, 7.00000000000000 );
#312 = FILL_AREA_STYLE_COLOUR( '', #369 );
#313 = LINE( '', #370, #371 );
#314 = FILL_AREA_STYLE_COLOUR( '', #372 );
#315 = VERTEX_POINT( '', #373 );
#316 = CIRCLE( '', #374, 7.00000000000000 );
#317 = FILL_AREA_STYLE_COLOUR( '', #375 );
#318 = COLOUR_RGB( '', 0.752941191196442, 0.752941191196442, 0.752941191196442 );
#319 = CARTESIAN_POINT( '', ( -223.000000000000, 21.5000000000000, 0.000000000000000 ) );
#320 = CARTESIAN_POINT( '', ( -223.000000000000, -21.5000000000000, 0.000000000000000 ) );
#321 = CARTESIAN_POINT( '', ( -223.000000000000, 21.5000000000000, 0.000000000000000 ) );
#322 = VECTOR( '', #376, 1000.00000000000 );
#323 = CARTESIAN_POINT( '', ( -223.000000000000, -21.5000000000000, 76.0000000000000 ) );
#324 = CARTESIAN_POINT( '', ( -223.000000000000, -21.5000000000000, 76.0000000000000 ) );
#325 = VECTOR( '', #377, 1000.00000000000 );
#326 = CARTESIAN_POINT( '', ( -223.000000000000, 21.5000000000000, 76.0000000000000 ) );
#327 = CARTESIAN_POINT( '', ( -223.000000000000, 21.5000000000000, 76.0000000000000 ) );
#328 = VECTOR( '', #378, 1000.00000000000 );
#329 = CARTESIAN_POINT( '', ( -223.000000000000, 21.5000000000000, 76.0000000000000 ) );
#330 = VECTOR( '', #379, 1000.00000000000 );
#331 = COLOUR_RGB( '', 0.752941191196442, 0.752941191196442, 0.752941191196442 );
#332 = CARTESIAN_POINT( '', ( -197.000000000000, -10.4999999999999, 76.0000000000000 ) );
#333 = AXIS2_PLACEMENT_3D( '', #380, #381, #382 );
#334 = CARTESIAN_POINT( '', ( 197.000000000000, -10.4999999999999, 76.0000000000000 ) );
#335 = AXIS2_PLACEMENT_3D( '', #383, #384, #385 );
#336 = CARTESIAN_POINT( '', ( 162.000000000000, -2.49999999999992, 76.0000000000000 ) );
#337 = AXIS2_PLACEMENT_3D( '', #386, #387, #388 );
#338 = CARTESIAN_POINT( '', ( -162.000000000000, -2.50000000000000, 76.0000000000000 ) );
#339 = AXIS2_PLACEMENT_3D( '', #389, #390, #391 );
#340 = CARTESIAN_POINT( '', ( 223.000000000000, 21.5000000000000, 76.0000000000000 ) );
#341 = CARTESIAN_POINT( '', ( 223.000000000000, 21.5000000000000, 76.0000000000000 ) );
#342 = VECTOR( '', #392, 1000.00000000000 );
#343 = CARTESIAN_POINT( '', ( 223.000000000000, -21.5000000000000, 76.0000000000000 ) );
#344 = CARTESIAN_POINT( '', ( -223.000000000000, -21.5000000000000, 76.0000000000000 ) );
#345 = VECTOR( '', #393, 1000.00000000000 );
#346 = CARTESIAN_POINT( '', ( 223.000000000000, -21.5000000000000, 76.0000000000000 ) );
#347 = VECTOR( '', #394, 1000.00000000000 );
#348 = COLOUR_RGB( '', 0.752941191196442, 0.752941191196442, 0.752941191196442 );
#349 = CARTESIAN_POINT( '', ( -212.000000000000, 4.50000000000006, 0.000000000000000 ) );
#350 = AXIS2_PLACEMENT_3D( '', #395, #396, #397 );
#351 = COLOUR_RGB( '', 0.752941191196442, 0.752941191196442, 0.752941191196442 );
#352 = CARTESIAN_POINT( '', ( 223.000000000000, -21.5000000000000, 0.000000000000000 ) );
#353 = CARTESIAN_POINT( '', ( -223.000000000000, -21.5000000000000, 0.000000000000000 ) );
#354 = VECTOR( '', #398, 1000.00000000000 );
#355 = CARTESIAN_POINT( '', ( 223.000000000000, -21.5000000000000, 76.0000000000000 ) );
#356 = VECTOR( '', #399, 1000.00000000000 );
#357 = COLOUR_RGB( '', 0.752941191196442, 0.752941191196442, 0.752941191196442 );
#358 = CARTESIAN_POINT( '', ( 182.000000000000, 4.50000000000006, 0.000000000000000 ) );
#359 = AXIS2_PLACEMENT_3D( '', #400, #401, #402 );
#360 = COLOUR_RGB( '', 0.752941191196442, 0.752941191196442, 0.752941191196442 );
#361 = CARTESIAN_POINT( '', ( 223.000000000000, 21.5000000000000, 0.000000000000000 ) );
#362 = CARTESIAN_POINT( '', ( 223.000000000000, 21.5000000000000, 0.000000000000000 ) );
#363 = VECTOR( '', #403, 1000.00000000000 );
#364 = CARTESIAN_POINT( '', ( 223.000000000000, 21.5000000000000, 76.0000000000000 ) );
#365 = VECTOR( '', #404, 1000.00000000000 );
#366 = COLOUR_RGB( '', 0.752941191196442, 0.752941191196442, 0.752941191196442 );
#367 = CARTESIAN_POINT( '', ( -169.000000000000, 4.50000000000000, 0.000000000000000 ) );
#368 = AXIS2_PLACEMENT_3D( '', #405, #406, #407 );
#369 = COLOUR_RGB( '', 0.752941191196442, 0.752941191196442, 0.752941191196442 );
#370 = CARTESIAN_POINT( '', ( 223.000000000000, -21.5000000000000, 0.000000000000000 ) );
#371 = VECTOR( '', #408, 1000.00000000000 );
#372 = COLOUR_RGB( '', 0.752941191196442, 0.752941191196442, 0.752941191196442 );
#373 = CARTESIAN_POINT( '', ( 155.000000000000, 4.50000000000008, 0.000000000000000 ) );
#374 = AXIS2_PLACEMENT_3D( '', #409, #410, #411 );
#375 = COLOUR_RGB( '', 0.752941191196442, 0.752941191196442, 0.752941191196442 );
#376 = DIRECTION( '', ( 6.45478502689045E-016, -1.00000000000000, 0.000000000000000 ) );
#377 = DIRECTION( '', ( 0.000000000000000, 0.000000000000000, -1.00000000000000 ) );
#378 = DIRECTION( '', ( 6.45478502689045E-016, -1.00000000000000, 0.000000000000000 ) );
#379 = DIRECTION( '', ( 0.000000000000000, 0.000000000000000, -1.00000000000000 ) );
#380 = CARTESIAN_POINT( '', ( -197.000000000000, 4.50000000000006, 76.0000000000000 ) );
#381 = DIRECTION( '', ( 0.000000000000000, 0.000000000000000, -1.00000000000000 ) );
#382 = DIRECTION( '', ( 0.000000000000000, -1.00000000000000, 0.000000000000000 ) );
#383 = CARTESIAN_POINT( '', ( 197.000000000000, 4.50000000000006, 76.0000000000000 ) );
#384 = DIRECTION( '', ( 0.000000000000000, 0.000000000000000, -1.00000000000000 ) );
#385 = DIRECTION( '', ( 0.000000000000000, -1.00000000000000, 0.000000000000000 ) );
#386 = CARTESIAN_POINT( '', ( 162.000000000000, 4.50000000000008, 76.0000000000000 ) );
#387 = DIRECTION( '', ( 0.000000000000000, 0.000000000000000, -1.00000000000000 ) );
#388 = DIRECTION( '', ( 0.000000000000000, -1.00000000000000, 0.000000000000000 ) );
#389 = CARTESIAN_POINT( '', ( -162.000000000000, 4.50000000000000, 76.0000000000000 ) );
#390 = DIRECTION( '', ( 0.000000000000000, 0.000000000000000, -1.00000000000000 ) );
#391 = DIRECTION( '', ( 0.000000000000000, -1.00000000000000, 0.000000000000000 ) );
#392 = DIRECTION( '', ( -1.00000000000000, 1.47801551764840E-016, 0.000000000000000 ) );
#393 = DIRECTION( '', ( 1.00000000000000, -6.22322323220379E-017, 0.000000000000000 ) );
#394 = DIRECTION( '', ( 0.000000000000000, 1.00000000000000, 0.000000000000000 ) );
#395 = CARTESIAN_POINT( '', ( -197.000000000000, 4.50000000000006, 0.000000000000000 ) );
#396 = DIRECTION( '', ( 0.000000000000000, 0.000000000000000, -1.00000000000000 ) );
#397 = DIRECTION( '', ( -1.00000000000000, 0.000000000000000, 0.000000000000000 ) );
#398 = DIRECTION( '', ( 1.00000000000000, -6.22322323220379E-017, 0.000000000000000 ) );
#399 = DIRECTION( '', ( 0.000000000000000, 0.000000000000000, -1.00000000000000 ) );
#400 = CARTESIAN_POINT( '', ( 197.000000000000, 4.50000000000006, 0.000000000000000 ) );
#401 = DIRECTION( '', ( 0.000000000000000, 0.000000000000000, -1.00000000000000 ) );
#402 = DIRECTION( '', ( -1.00000000000000, 0.000000000000000, 0.000000000000000 ) );
#403 = DIRECTION( '', ( -1.00000000000000, 1.47801551764840E-016, 0.000000000000000 ) );
#404 = DIRECTION( '', ( 0.000000000000000, 0.000000000000000, -1.00000000000000 ) );
#405 = CARTESIAN_POINT( '', ( -162.000000000000, 4.50000000000000, 0.000000000000000 ) );
#406 = DIRECTION( '', ( 0.000000000000000, 0.000000000000000, -1.00000000000000 ) );
#407 = DIRECTION( '', ( -1.00000000000000, 0.000000000000000, 0.000000000000000 ) );
#408 = DIRECTION( '', ( 0.000000000000000, 1.00000000000000, 0.000000000000000 ) );
#409 = CARTESIAN_POINT( '', ( 162.000000000000, 4.50000000000008, 0.000000000000000 ) );
#410 = DIRECTION( '', ( 0.000000000000000, 0.000000000000000, -1.00000000000000 ) );
#411 = DIRECTION( '', ( -1.00000000000000, 0.000000000000000, 0.000000000000000 ) );
ENDSEC;
END-ISO-10303-21;
