ISO-10303-21;
HEADER;
FILE_DESCRIPTION( ( 'Unknown' ), '1' );
FILE_NAME( 'M:/Piezas_3D/Placas_Par/G2/OS_G2_296x396x076_.stp', 'Unknown', ( 'Unknown' ), ( 'Unknown' ), 'PSStep 16.0.42', 'Unknown', '  ' );
FILE_SCHEMA( ( 'AUTOMOTIVE_DESIGN { 1 0 10303 214 1 1 1 1 }' ) );
ENDSEC;
DATA;
#1 = MECHANICAL_DESIGN_GEOMETRIC_PRESENTATION_REPRESENTATION( ' ', ( #10, #11, #12, #13, #14, #15, #16, #17, #18, #19 ), #6 );
#2 = PRODUCT_DEFINITION_CONTEXT( '', #20, 'design' );
#3 = APPLICATION_PROTOCOL_DEFINITION( 'international standard', 'automotive_design', 2001, #20 );
#4 = PRODUCT_CATEGORY_RELATIONSHIP( 'NONE', 'NONE', #21, #22 );
#5 = SHAPE_DEFINITION_REPRESENTATION( #23, #24 );
#6 =  ( GEOMETRIC_REPRESENTATION_CONTEXT( 3 )GLOBAL_UNCERTAINTY_ASSIGNED_CONTEXT( ( #27 ) )GLOBAL_UNIT_ASSIGNED_CONTEXT( ( #29, #30, #31 ) )REPRESENTATION_CONTEXT( 'NONE', 'WORKSPACE' ) );
#10 = STYLED_ITEM( '', ( #33 ), #34 );
#11 = STYLED_ITEM( '', ( #35 ), #36 );
#12 = STYLED_ITEM( '', ( #37 ), #38 );
#13 = STYLED_ITEM( '', ( #39 ), #40 );
#14 = STYLED_ITEM( '', ( #41 ), #42 );
#15 = STYLED_ITEM( '', ( #43 ), #44 );
#16 = STYLED_ITEM( '', ( #45 ), #46 );
#17 = STYLED_ITEM( '', ( #47 ), #48 );
#18 = STYLED_ITEM( '', ( #49 ), #50 );
#19 = STYLED_ITEM( '', ( #51 ), #52 );
#20 = APPLICATION_CONTEXT( 'core data for automotive mechanical design processes' );
#21 = PRODUCT_CATEGORY( 'part', 'NONE' );
#22 = PRODUCT_RELATED_PRODUCT_CATEGORY( 'detail', ' ', ( #53 ) );
#23 = PRODUCT_DEFINITION_SHAPE( 'NONE', 'NONE', #54 );
#24 = ADVANCED_BREP_SHAPE_REPRESENTATION( '1', ( #55, #56 ), #6 );
#27 = UNCERTAINTY_MEASURE_WITH_UNIT( LENGTH_MEASURE( 0.00100000000000000 ), #29, '', '' );
#29 =  ( CONVERSION_BASED_UNIT( 'MILLIMETRE', #59 )LENGTH_UNIT(  )NAMED_UNIT( #62 ) );
#30 =  ( NAMED_UNIT( #64 )PLANE_ANGLE_UNIT(  )SI_UNIT( $, .RADIAN. ) );
#31 =  ( NAMED_UNIT( #64 )SI_UNIT( $, .STERADIAN. )SOLID_ANGLE_UNIT(  ) );
#33 = PRESENTATION_STYLE_ASSIGNMENT( ( #70 ) );
#34 = ADVANCED_FACE( '', ( #71, #72, #73, #74, #75 ), #76, .T. );
#35 = PRESENTATION_STYLE_ASSIGNMENT( ( #77 ) );
#36 = ADVANCED_FACE( '', ( #78, #79 ), #80, .F. );
#37 = PRESENTATION_STYLE_ASSIGNMENT( ( #81 ) );
#38 = ADVANCED_FACE( '', ( #82 ), #83, .F. );
#39 = PRESENTATION_STYLE_ASSIGNMENT( ( #84 ) );
#40 = ADVANCED_FACE( '', ( #85, #86 ), #87, .F. );
#41 = PRESENTATION_STYLE_ASSIGNMENT( ( #88 ) );
#42 = ADVANCED_FACE( '', ( #89, #90 ), #91, .F. );
#43 = PRESENTATION_STYLE_ASSIGNMENT( ( #92 ) );
#44 = ADVANCED_FACE( '', ( #93, #94, #95, #96, #97 ), #98, .F. );
#45 = PRESENTATION_STYLE_ASSIGNMENT( ( #99 ) );
#46 = ADVANCED_FACE( '', ( #100 ), #101, .F. );
#47 = PRESENTATION_STYLE_ASSIGNMENT( ( #102 ) );
#48 = ADVANCED_FACE( '', ( #103, #104 ), #105, .F. );
#49 = PRESENTATION_STYLE_ASSIGNMENT( ( #106 ) );
#50 = ADVANCED_FACE( '', ( #107 ), #108, .F. );
#51 = PRESENTATION_STYLE_ASSIGNMENT( ( #109 ) );
#52 = ADVANCED_FACE( '', ( #110 ), #111, .F. );
#53 = PRODUCT( '1', '1', 'PART-1-DESC', ( #112 ) );
#54 = PRODUCT_DEFINITION( 'NONE', 'NONE', #113, #2 );
#55 = MANIFOLD_SOLID_BREP( '1', #114 );
#56 = AXIS2_PLACEMENT_3D( '', #115, #116, #117 );
#59 = LENGTH_MEASURE_WITH_UNIT( LENGTH_MEASURE( 1.00000000000000 ), #118 );
#62 = DIMENSIONAL_EXPONENTS( 1.00000000000000, 0.000000000000000, 0.000000000000000, 0.000000000000000, 0.000000000000000, 0.000000000000000, 0.000000000000000 );
#64 = DIMENSIONAL_EXPONENTS( 0.000000000000000, 0.000000000000000, 0.000000000000000, 0.000000000000000, 0.000000000000000, 0.000000000000000, 0.000000000000000 );
#70 = SURFACE_STYLE_USAGE( .BOTH., #119 );
#71 = FACE_BOUND( '', #120, .T. );
#72 = FACE_BOUND( '', #121, .T. );
#73 = FACE_BOUND( '', #122, .T. );
#74 = FACE_BOUND( '', #123, .T. );
#75 = FACE_OUTER_BOUND( '', #124, .T. );
#76 = PLANE( '', #125 );
#77 = SURFACE_STYLE_USAGE( .BOTH., #126 );
#78 = FACE_OUTER_BOUND( '', #127, .T. );
#79 = FACE_OUTER_BOUND( '', #128, .T. );
#80 = CYLINDRICAL_SURFACE( '', #129, 7.00000000000000 );
#81 = SURFACE_STYLE_USAGE( .BOTH., #130 );
#82 = FACE_OUTER_BOUND( '', #131, .T. );
#83 = PLANE( '', #132 );
#84 = SURFACE_STYLE_USAGE( .BOTH., #133 );
#85 = FACE_OUTER_BOUND( '', #134, .T. );
#86 = FACE_OUTER_BOUND( '', #135, .T. );
#87 = CYLINDRICAL_SURFACE( '', #136, 15.0000000000000 );
#88 = SURFACE_STYLE_USAGE( .BOTH., #137 );
#89 = FACE_OUTER_BOUND( '', #138, .T. );
#90 = FACE_OUTER_BOUND( '', #139, .T. );
#91 = CYLINDRICAL_SURFACE( '', #140, 7.00000000000000 );
#92 = SURFACE_STYLE_USAGE( .BOTH., #141 );
#93 = FACE_BOUND( '', #142, .T. );
#94 = FACE_BOUND( '', #143, .T. );
#95 = FACE_BOUND( '', #144, .T. );
#96 = FACE_BOUND( '', #145, .T. );
#97 = FACE_OUTER_BOUND( '', #146, .T. );
#98 = PLANE( '', #147 );
#99 = SURFACE_STYLE_USAGE( .BOTH., #148 );
#100 = FACE_OUTER_BOUND( '', #149, .T. );
#101 = PLANE( '', #150 );
#102 = SURFACE_STYLE_USAGE( .BOTH., #151 );
#103 = FACE_OUTER_BOUND( '', #152, .T. );
#104 = FACE_OUTER_BOUND( '', #153, .T. );
#105 = CYLINDRICAL_SURFACE( '', #154, 15.0000000000000 );
#106 = SURFACE_STYLE_USAGE( .BOTH., #155 );
#107 = FACE_OUTER_BOUND( '', #156, .T. );
#108 = PLANE( '', #157 );
#109 = SURFACE_STYLE_USAGE( .BOTH., #158 );
#110 = FACE_OUTER_BOUND( '', #159, .T. );
#111 = PLANE( '', #160 );
#112 = PRODUCT_CONTEXT( '', #20, 'mechanical' );
#113 = PRODUCT_DEFINITION_FORMATION_WITH_SPECIFIED_SOURCE( ' ', 'NONE', #53, .NOT_KNOWN. );
#114 = CLOSED_SHELL( '', ( #36, #44, #38, #34, #52, #46, #50, #42, #48, #40 ) );
#115 = CARTESIAN_POINT( '', ( 0.000000000000000, 0.000000000000000, 0.000000000000000 ) );
#116 = DIRECTION( '', ( 0.000000000000000, 0.000000000000000, 1.00000000000000 ) );
#117 = DIRECTION( '', ( 1.00000000000000, 0.000000000000000, 0.000000000000000 ) );
#118 =  ( LENGTH_UNIT(  )NAMED_UNIT( #62 )SI_UNIT( .MILLI., .METRE. ) );
#119 = SURFACE_SIDE_STYLE( '', ( #162 ) );
#120 = EDGE_LOOP( '', ( #163 ) );
#121 = EDGE_LOOP( '', ( #164 ) );
#122 = EDGE_LOOP( '', ( #165 ) );
#123 = EDGE_LOOP( '', ( #166 ) );
#124 = EDGE_LOOP( '', ( #167, #168, #169, #170 ) );
#125 = AXIS2_PLACEMENT_3D( '', #171, #172, #173 );
#126 = SURFACE_SIDE_STYLE( '', ( #174 ) );
#127 = EDGE_LOOP( '', ( #175 ) );
#128 = EDGE_LOOP( '', ( #176 ) );
#129 = AXIS2_PLACEMENT_3D( '', #177, #178, #179 );
#130 = SURFACE_SIDE_STYLE( '', ( #180 ) );
#131 = EDGE_LOOP( '', ( #181, #182, #183, #184 ) );
#132 = AXIS2_PLACEMENT_3D( '', #185, #186, #187 );
#133 = SURFACE_SIDE_STYLE( '', ( #188 ) );
#134 = EDGE_LOOP( '', ( #189 ) );
#135 = EDGE_LOOP( '', ( #190 ) );
#136 = AXIS2_PLACEMENT_3D( '', #191, #192, #193 );
#137 = SURFACE_SIDE_STYLE( '', ( #194 ) );
#138 = EDGE_LOOP( '', ( #195 ) );
#139 = EDGE_LOOP( '', ( #196 ) );
#140 = AXIS2_PLACEMENT_3D( '', #197, #198, #199 );
#141 = SURFACE_SIDE_STYLE( '', ( #200 ) );
#142 = EDGE_LOOP( '', ( #201 ) );
#143 = EDGE_LOOP( '', ( #202 ) );
#144 = EDGE_LOOP( '', ( #203 ) );
#145 = EDGE_LOOP( '', ( #204 ) );
#146 = EDGE_LOOP( '', ( #205, #206, #207, #208 ) );
#147 = AXIS2_PLACEMENT_3D( '', #209, #210, #211 );
#148 = SURFACE_SIDE_STYLE( '', ( #212 ) );
#149 = EDGE_LOOP( '', ( #213, #214, #215, #216 ) );
#150 = AXIS2_PLACEMENT_3D( '', #217, #218, #219 );
#151 = SURFACE_SIDE_STYLE( '', ( #220 ) );
#152 = EDGE_LOOP( '', ( #221 ) );
#153 = EDGE_LOOP( '', ( #222 ) );
#154 = AXIS2_PLACEMENT_3D( '', #223, #224, #225 );
#155 = SURFACE_SIDE_STYLE( '', ( #226 ) );
#156 = EDGE_LOOP( '', ( #227, #228, #229, #230 ) );
#157 = AXIS2_PLACEMENT_3D( '', #231, #232, #233 );
#158 = SURFACE_SIDE_STYLE( '', ( #234 ) );
#159 = EDGE_LOOP( '', ( #235, #236, #237, #238 ) );
#160 = AXIS2_PLACEMENT_3D( '', #239, #240, #241 );
#162 = SURFACE_STYLE_FILL_AREA( #242 );
#163 = ORIENTED_EDGE( '', *, *, #243, .T. );
#164 = ORIENTED_EDGE( '', *, *, #244, .T. );
#165 = ORIENTED_EDGE( '', *, *, #245, .T. );
#166 = ORIENTED_EDGE( '', *, *, #246, .T. );
#167 = ORIENTED_EDGE( '', *, *, #247, .T. );
#168 = ORIENTED_EDGE( '', *, *, #248, .T. );
#169 = ORIENTED_EDGE( '', *, *, #249, .T. );
#170 = ORIENTED_EDGE( '', *, *, #250, .T. );
#171 = CARTESIAN_POINT( '', ( -198.000000000000, 23.5000000000000, 76.0000000000000 ) );
#172 = DIRECTION( '', ( 0.000000000000000, 0.000000000000000, 1.00000000000000 ) );
#173 = DIRECTION( '', ( 1.00000000000000, 0.000000000000000, 0.000000000000000 ) );
#174 = SURFACE_STYLE_FILL_AREA( #251 );
#175 = ORIENTED_EDGE( '', *, *, #246, .F. );
#176 = ORIENTED_EDGE( '', *, *, #252, .F. );
#177 = CARTESIAN_POINT( '', ( -142.000000000000, 0.500000000000039, 76.0000000000000 ) );
#178 = DIRECTION( '', ( -0.000000000000000, -0.000000000000000, 1.00000000000000 ) );
#179 = DIRECTION( '', ( 0.000000000000000, -1.00000000000000, 0.000000000000000 ) );
#180 = SURFACE_STYLE_FILL_AREA( #253 );
#181 = ORIENTED_EDGE( '', *, *, #254, .T. );
#182 = ORIENTED_EDGE( '', *, *, #255, .F. );
#183 = ORIENTED_EDGE( '', *, *, #250, .F. );
#184 = ORIENTED_EDGE( '', *, *, #256, .T. );
#185 = CARTESIAN_POINT( '', ( 198.000000000000, -23.5000000000000, 76.0000000000000 ) );
#186 = DIRECTION( '', ( -1.00000000000000, 0.000000000000000, 0.000000000000000 ) );
#187 = DIRECTION( '', ( 0.000000000000000, 0.000000000000000, 1.00000000000000 ) );
#188 = SURFACE_STYLE_FILL_AREA( #257 );
#189 = ORIENTED_EDGE( '', *, *, #243, .F. );
#190 = ORIENTED_EDGE( '', *, *, #258, .F. );
#191 = CARTESIAN_POINT( '', ( -170.000000000000, 0.500000000000052, 76.0000000000000 ) );
#192 = DIRECTION( '', ( -0.000000000000000, -0.000000000000000, 1.00000000000000 ) );
#193 = DIRECTION( '', ( 0.000000000000000, -1.00000000000000, 0.000000000000000 ) );
#194 = SURFACE_STYLE_FILL_AREA( #259 );
#195 = ORIENTED_EDGE( '', *, *, #245, .F. );
#196 = ORIENTED_EDGE( '', *, *, #260, .F. );
#197 = CARTESIAN_POINT( '', ( 142.000000000000, 0.500000000000073, 76.0000000000000 ) );
#198 = DIRECTION( '', ( -0.000000000000000, -0.000000000000000, 1.00000000000000 ) );
#199 = DIRECTION( '', ( 0.000000000000000, -1.00000000000000, 0.000000000000000 ) );
#200 = SURFACE_STYLE_FILL_AREA( #261 );
#201 = ORIENTED_EDGE( '', *, *, #258, .T. );
#202 = ORIENTED_EDGE( '', *, *, #262, .T. );
#203 = ORIENTED_EDGE( '', *, *, #260, .T. );
#204 = ORIENTED_EDGE( '', *, *, #252, .T. );
#205 = ORIENTED_EDGE( '', *, *, #263, .F. );
#206 = ORIENTED_EDGE( '', *, *, #254, .F. );
#207 = ORIENTED_EDGE( '', *, *, #264, .F. );
#208 = ORIENTED_EDGE( '', *, *, #265, .F. );
#209 = CARTESIAN_POINT( '', ( -198.000000000000, 23.5000000000000, 0.000000000000000 ) );
#210 = DIRECTION( '', ( 0.000000000000000, 0.000000000000000, 1.00000000000000 ) );
#211 = DIRECTION( '', ( 1.00000000000000, 0.000000000000000, 0.000000000000000 ) );
#212 = SURFACE_STYLE_FILL_AREA( #266 );
#213 = ORIENTED_EDGE( '', *, *, #263, .T. );
#214 = ORIENTED_EDGE( '', *, *, #267, .F. );
#215 = ORIENTED_EDGE( '', *, *, #247, .F. );
#216 = ORIENTED_EDGE( '', *, *, #255, .T. );
#217 = CARTESIAN_POINT( '', ( 198.000000000000, 23.5000000000000, 76.0000000000000 ) );
#218 = DIRECTION( '', ( -1.48940904503059E-016, -1.00000000000000, 0.000000000000000 ) );
#219 = DIRECTION( '', ( 1.00000000000000, -1.48940904503059E-016, 0.000000000000000 ) );
#220 = SURFACE_STYLE_FILL_AREA( #268 );
#221 = ORIENTED_EDGE( '', *, *, #244, .F. );
#222 = ORIENTED_EDGE( '', *, *, #262, .F. );
#223 = CARTESIAN_POINT( '', ( 170.000000000000, 0.500000000000093, 76.0000000000000 ) );
#224 = DIRECTION( '', ( -0.000000000000000, -0.000000000000000, 1.00000000000000 ) );
#225 = DIRECTION( '', ( 0.000000000000000, -1.00000000000000, 0.000000000000000 ) );
#226 = SURFACE_STYLE_FILL_AREA( #269 );
#227 = ORIENTED_EDGE( '', *, *, #265, .T. );
#228 = ORIENTED_EDGE( '', *, *, #270, .F. );
#229 = ORIENTED_EDGE( '', *, *, #248, .F. );
#230 = ORIENTED_EDGE( '', *, *, #267, .T. );
#231 = CARTESIAN_POINT( '', ( -198.000000000000, 23.5000000000000, 76.0000000000000 ) );
#232 = DIRECTION( '', ( 1.00000000000000, 0.000000000000000, 0.000000000000000 ) );
#233 = DIRECTION( '', ( 0.000000000000000, 0.000000000000000, -1.00000000000000 ) );
#234 = SURFACE_STYLE_FILL_AREA( #271 );
#235 = ORIENTED_EDGE( '', *, *, #264, .T. );
#236 = ORIENTED_EDGE( '', *, *, #256, .F. );
#237 = ORIENTED_EDGE( '', *, *, #249, .F. );
#238 = ORIENTED_EDGE( '', *, *, #270, .T. );
#239 = CARTESIAN_POINT( '', ( -198.000000000000, -23.5000000000000, 76.0000000000000 ) );
#240 = DIRECTION( '', ( 5.25673780599032E-017, 1.00000000000000, 0.000000000000000 ) );
#241 = DIRECTION( '', ( -1.00000000000000, 5.25673780599032E-017, 0.000000000000000 ) );
#242 = FILL_AREA_STYLE( '', ( #272 ) );
#243 = EDGE_CURVE( '', #273, #273, #274, .T. );
#244 = EDGE_CURVE( '', #275, #275, #276, .T. );
#245 = EDGE_CURVE( '', #277, #277, #278, .T. );
#246 = EDGE_CURVE( '', #279, #279, #280, .T. );
#247 = EDGE_CURVE( '', #281, #282, #283, .T. );
#248 = EDGE_CURVE( '', #282, #284, #285, .T. );
#249 = EDGE_CURVE( '', #284, #286, #287, .T. );
#250 = EDGE_CURVE( '', #286, #281, #288, .T. );
#251 = FILL_AREA_STYLE( '', ( #289 ) );
#252 = EDGE_CURVE( '', #290, #290, #291, .T. );
#253 = FILL_AREA_STYLE( '', ( #292 ) );
#254 = EDGE_CURVE( '', #293, #294, #295, .T. );
#255 = EDGE_CURVE( '', #281, #294, #296, .T. );
#256 = EDGE_CURVE( '', #286, #293, #297, .T. );
#257 = FILL_AREA_STYLE( '', ( #298 ) );
#258 = EDGE_CURVE( '', #299, #299, #300, .T. );
#259 = FILL_AREA_STYLE( '', ( #301 ) );
#260 = EDGE_CURVE( '', #302, #302, #303, .T. );
#261 = FILL_AREA_STYLE( '', ( #304 ) );
#262 = EDGE_CURVE( '', #305, #305, #306, .T. );
#263 = EDGE_CURVE( '', #294, #307, #308, .T. );
#264 = EDGE_CURVE( '', #309, #293, #310, .T. );
#265 = EDGE_CURVE( '', #307, #309, #311, .T. );
#266 = FILL_AREA_STYLE( '', ( #312 ) );
#267 = EDGE_CURVE( '', #282, #307, #313, .T. );
#268 = FILL_AREA_STYLE( '', ( #314 ) );
#269 = FILL_AREA_STYLE( '', ( #315 ) );
#270 = EDGE_CURVE( '', #284, #309, #316, .T. );
#271 = FILL_AREA_STYLE( '', ( #317 ) );
#272 = FILL_AREA_STYLE_COLOUR( '', #318 );
#273 = VERTEX_POINT( '', #319 );
#274 = CIRCLE( '', #320, 15.0000000000000 );
#275 = VERTEX_POINT( '', #321 );
#276 = CIRCLE( '', #322, 15.0000000000000 );
#277 = VERTEX_POINT( '', #323 );
#278 = CIRCLE( '', #324, 7.00000000000000 );
#279 = VERTEX_POINT( '', #325 );
#280 = CIRCLE( '', #326, 7.00000000000000 );
#281 = VERTEX_POINT( '', #327 );
#282 = VERTEX_POINT( '', #328 );
#283 = LINE( '', #329, #330 );
#284 = VERTEX_POINT( '', #331 );
#285 = LINE( '', #332, #333 );
#286 = VERTEX_POINT( '', #334 );
#287 = LINE( '', #335, #336 );
#288 = LINE( '', #337, #338 );
#289 = FILL_AREA_STYLE_COLOUR( '', #339 );
#290 = VERTEX_POINT( '', #340 );
#291 = CIRCLE( '', #341, 7.00000000000000 );
#292 = FILL_AREA_STYLE_COLOUR( '', #342 );
#293 = VERTEX_POINT( '', #343 );
#294 = VERTEX_POINT( '', #344 );
#295 = LINE( '', #345, #346 );
#296 = LINE( '', #347, #348 );
#297 = LINE( '', #349, #350 );
#298 = FILL_AREA_STYLE_COLOUR( '', #351 );
#299 = VERTEX_POINT( '', #352 );
#300 = CIRCLE( '', #353, 15.0000000000000 );
#301 = FILL_AREA_STYLE_COLOUR( '', #354 );
#302 = VERTEX_POINT( '', #355 );
#303 = CIRCLE( '', #356, 7.00000000000000 );
#304 = FILL_AREA_STYLE_COLOUR( '', #357 );
#305 = VERTEX_POINT( '', #358 );
#306 = CIRCLE( '', #359, 15.0000000000000 );
#307 = VERTEX_POINT( '', #360 );
#308 = LINE( '', #361, #362 );
#309 = VERTEX_POINT( '', #363 );
#310 = LINE( '', #364, #365 );
#311 = LINE( '', #366, #367 );
#312 = FILL_AREA_STYLE_COLOUR( '', #368 );
#313 = LINE( '', #369, #370 );
#314 = FILL_AREA_STYLE_COLOUR( '', #371 );
#315 = FILL_AREA_STYLE_COLOUR( '', #372 );
#316 = LINE( '', #373, #374 );
#317 = FILL_AREA_STYLE_COLOUR( '', #375 );
#318 = COLOUR_RGB( '', 0.752941191196442, 0.752941191196442, 0.752941191196442 );
#319 = CARTESIAN_POINT( '', ( -170.000000000000, -14.4999999999999, 76.0000000000000 ) );
#320 = AXIS2_PLACEMENT_3D( '', #376, #377, #378 );
#321 = CARTESIAN_POINT( '', ( 170.000000000000, -14.4999999999999, 76.0000000000000 ) );
#322 = AXIS2_PLACEMENT_3D( '', #379, #380, #381 );
#323 = CARTESIAN_POINT( '', ( 142.000000000000, -6.49999999999993, 76.0000000000000 ) );
#324 = AXIS2_PLACEMENT_3D( '', #382, #383, #384 );
#325 = CARTESIAN_POINT( '', ( -142.000000000000, -6.49999999999996, 76.0000000000000 ) );
#326 = AXIS2_PLACEMENT_3D( '', #385, #386, #387 );
#327 = CARTESIAN_POINT( '', ( 198.000000000000, 23.5000000000000, 76.0000000000000 ) );
#328 = CARTESIAN_POINT( '', ( -198.000000000000, 23.5000000000000, 76.0000000000000 ) );
#329 = CARTESIAN_POINT( '', ( 198.000000000000, 23.5000000000000, 76.0000000000000 ) );
#330 = VECTOR( '', #388, 1000.00000000000 );
#331 = CARTESIAN_POINT( '', ( -198.000000000000, -23.5000000000000, 76.0000000000000 ) );
#332 = CARTESIAN_POINT( '', ( -198.000000000000, 23.5000000000000, 76.0000000000000 ) );
#333 = VECTOR( '', #389, 1000.00000000000 );
#334 = CARTESIAN_POINT( '', ( 198.000000000000, -23.5000000000000, 76.0000000000000 ) );
#335 = CARTESIAN_POINT( '', ( -198.000000000000, -23.5000000000000, 76.0000000000000 ) );
#336 = VECTOR( '', #390, 1000.00000000000 );
#337 = CARTESIAN_POINT( '', ( 198.000000000000, -23.5000000000000, 76.0000000000000 ) );
#338 = VECTOR( '', #391, 1000.00000000000 );
#339 = COLOUR_RGB( '', 0.752941191196442, 0.752941191196442, 0.752941191196442 );
#340 = CARTESIAN_POINT( '', ( -135.000000000000, 0.500000000000039, 0.000000000000000 ) );
#341 = AXIS2_PLACEMENT_3D( '', #392, #393, #394 );
#342 = COLOUR_RGB( '', 0.752941191196442, 0.752941191196442, 0.752941191196442 );
#343 = CARTESIAN_POINT( '', ( 198.000000000000, -23.5000000000000, 0.000000000000000 ) );
#344 = CARTESIAN_POINT( '', ( 198.000000000000, 23.5000000000000, 0.000000000000000 ) );
#345 = CARTESIAN_POINT( '', ( 198.000000000000, -23.5000000000000, 0.000000000000000 ) );
#346 = VECTOR( '', #395, 1000.00000000000 );
#347 = CARTESIAN_POINT( '', ( 198.000000000000, 23.5000000000000, 76.0000000000000 ) );
#348 = VECTOR( '', #396, 1000.00000000000 );
#349 = CARTESIAN_POINT( '', ( 198.000000000000, -23.5000000000000, 76.0000000000000 ) );
#350 = VECTOR( '', #397, 1000.00000000000 );
#351 = COLOUR_RGB( '', 0.752941191196442, 0.752941191196442, 0.752941191196442 );
#352 = CARTESIAN_POINT( '', ( -155.000000000000, 0.500000000000052, 0.000000000000000 ) );
#353 = AXIS2_PLACEMENT_3D( '', #398, #399, #400 );
#354 = COLOUR_RGB( '', 0.752941191196442, 0.752941191196442, 0.752941191196442 );
#355 = CARTESIAN_POINT( '', ( 149.000000000000, 0.500000000000073, 0.000000000000000 ) );
#356 = AXIS2_PLACEMENT_3D( '', #401, #402, #403 );
#357 = COLOUR_RGB( '', 0.752941191196442, 0.752941191196442, 0.752941191196442 );
#358 = CARTESIAN_POINT( '', ( 185.000000000000, 0.500000000000093, 0.000000000000000 ) );
#359 = AXIS2_PLACEMENT_3D( '', #404, #405, #406 );
#360 = CARTESIAN_POINT( '', ( -198.000000000000, 23.5000000000000, 0.000000000000000 ) );
#361 = CARTESIAN_POINT( '', ( 198.000000000000, 23.5000000000000, 0.000000000000000 ) );
#362 = VECTOR( '', #407, 1000.00000000000 );
#363 = CARTESIAN_POINT( '', ( -198.000000000000, -23.5000000000000, 0.000000000000000 ) );
#364 = CARTESIAN_POINT( '', ( -198.000000000000, -23.5000000000000, 0.000000000000000 ) );
#365 = VECTOR( '', #408, 1000.00000000000 );
#366 = CARTESIAN_POINT( '', ( -198.000000000000, 23.5000000000000, 0.000000000000000 ) );
#367 = VECTOR( '', #409, 1000.00000000000 );
#368 = COLOUR_RGB( '', 0.752941191196442, 0.752941191196442, 0.752941191196442 );
#369 = CARTESIAN_POINT( '', ( -198.000000000000, 23.5000000000000, 76.0000000000000 ) );
#370 = VECTOR( '', #410, 1000.00000000000 );
#371 = COLOUR_RGB( '', 0.752941191196442, 0.752941191196442, 0.752941191196442 );
#372 = COLOUR_RGB( '', 0.752941191196442, 0.752941191196442, 0.752941191196442 );
#373 = CARTESIAN_POINT( '', ( -198.000000000000, -23.5000000000000, 76.0000000000000 ) );
#374 = VECTOR( '', #411, 1000.00000000000 );
#375 = COLOUR_RGB( '', 0.752941191196442, 0.752941191196442, 0.752941191196442 );
#376 = CARTESIAN_POINT( '', ( -170.000000000000, 0.500000000000052, 76.0000000000000 ) );
#377 = DIRECTION( '', ( 0.000000000000000, 0.000000000000000, -1.00000000000000 ) );
#378 = DIRECTION( '', ( 0.000000000000000, -1.00000000000000, 0.000000000000000 ) );
#379 = CARTESIAN_POINT( '', ( 170.000000000000, 0.500000000000093, 76.0000000000000 ) );
#380 = DIRECTION( '', ( 0.000000000000000, 0.000000000000000, -1.00000000000000 ) );
#381 = DIRECTION( '', ( 0.000000000000000, -1.00000000000000, 0.000000000000000 ) );
#382 = CARTESIAN_POINT( '', ( 142.000000000000, 0.500000000000073, 76.0000000000000 ) );
#383 = DIRECTION( '', ( 0.000000000000000, 0.000000000000000, -1.00000000000000 ) );
#384 = DIRECTION( '', ( 0.000000000000000, -1.00000000000000, 0.000000000000000 ) );
#385 = CARTESIAN_POINT( '', ( -142.000000000000, 0.500000000000039, 76.0000000000000 ) );
#386 = DIRECTION( '', ( 0.000000000000000, 0.000000000000000, -1.00000000000000 ) );
#387 = DIRECTION( '', ( 0.000000000000000, -1.00000000000000, 0.000000000000000 ) );
#388 = DIRECTION( '', ( -1.00000000000000, 1.48940904503059E-016, 0.000000000000000 ) );
#389 = DIRECTION( '', ( 0.000000000000000, -1.00000000000000, 0.000000000000000 ) );
#390 = DIRECTION( '', ( 1.00000000000000, -5.25673780599032E-017, 0.000000000000000 ) );
#391 = DIRECTION( '', ( 0.000000000000000, 1.00000000000000, 0.000000000000000 ) );
#392 = CARTESIAN_POINT( '', ( -142.000000000000, 0.500000000000039, 0.000000000000000 ) );
#393 = DIRECTION( '', ( 0.000000000000000, 0.000000000000000, 1.00000000000000 ) );
#394 = DIRECTION( '', ( 1.00000000000000, 0.000000000000000, 0.000000000000000 ) );
#395 = DIRECTION( '', ( 0.000000000000000, 1.00000000000000, 0.000000000000000 ) );
#396 = DIRECTION( '', ( 0.000000000000000, 0.000000000000000, -1.00000000000000 ) );
#397 = DIRECTION( '', ( 0.000000000000000, 0.000000000000000, -1.00000000000000 ) );
#398 = CARTESIAN_POINT( '', ( -170.000000000000, 0.500000000000052, 0.000000000000000 ) );
#399 = DIRECTION( '', ( 0.000000000000000, 0.000000000000000, 1.00000000000000 ) );
#400 = DIRECTION( '', ( 1.00000000000000, 0.000000000000000, 0.000000000000000 ) );
#401 = CARTESIAN_POINT( '', ( 142.000000000000, 0.500000000000073, 0.000000000000000 ) );
#402 = DIRECTION( '', ( 0.000000000000000, 0.000000000000000, 1.00000000000000 ) );
#403 = DIRECTION( '', ( 1.00000000000000, 0.000000000000000, 0.000000000000000 ) );
#404 = CARTESIAN_POINT( '', ( 170.000000000000, 0.500000000000093, 0.000000000000000 ) );
#405 = DIRECTION( '', ( 0.000000000000000, 0.000000000000000, 1.00000000000000 ) );
#406 = DIRECTION( '', ( 1.00000000000000, 0.000000000000000, 0.000000000000000 ) );
#407 = DIRECTION( '', ( -1.00000000000000, 1.48940904503059E-016, 0.000000000000000 ) );
#408 = DIRECTION( '', ( 1.00000000000000, -5.25673780599032E-017, 0.000000000000000 ) );
#409 = DIRECTION( '', ( 0.000000000000000, -1.00000000000000, 0.000000000000000 ) );
#410 = DIRECTION( '', ( 0.000000000000000, 0.000000000000000, -1.00000000000000 ) );
#411 = DIRECTION( '', ( 0.000000000000000, 0.000000000000000, -1.00000000000000 ) );
ENDSEC;
END-ISO-10303-21;
