ISO-10303-21;
HEADER;
FILE_DESCRIPTION( ( 'Unknown' ), '1' );
FILE_NAME( 'M:/Piezas_3D/Placas_Par/G2/OS_G2_296x446x096_.stp', 'Unknown', ( 'Unknown' ), ( 'Unknown' ), 'PSStep 16.0.42', 'Unknown', '  ' );
FILE_SCHEMA( ( 'AUTOMOTIVE_DESIGN { 1 0 10303 214 1 1 1 1 }' ) );
ENDSEC;
DATA;
#1 = MECHANICAL_DESIGN_GEOMETRIC_PRESENTATION_REPRESENTATION( ' ', ( #10, #11, #12, #13, #14, #15, #16, #17, #18, #19 ), #6 );
#2 = PRODUCT_DEFINITION_CONTEXT( '', #20, 'design' );
#3 = APPLICATION_PROTOCOL_DEFINITION( 'international standard', 'automotive_design', 2001, #20 );
#4 = PRODUCT_CATEGORY_RELATIONSHIP( 'NONE', 'NONE', #21, #22 );
#5 = SHAPE_DEFINITION_REPRESENTATION( #23, #24 );
#6 =  ( GEOMETRIC_REPRESENTATION_CONTEXT( 3 )GLOBAL_UNCERTAINTY_ASSIGNED_CONTEXT( ( #27 ) )GLOBAL_UNIT_ASSIGNED_CONTEXT( ( #29, #30, #31 ) )REPRESENTATION_CONTEXT( 'NONE', 'WORKSPACE' ) );
#10 = STYLED_ITEM( '', ( #33 ), #34 );
#11 = STYLED_ITEM( '', ( #35 ), #36 );
#12 = STYLED_ITEM( '', ( #37 ), #38 );
#13 = STYLED_ITEM( '', ( #39 ), #40 );
#14 = STYLED_ITEM( '', ( #41 ), #42 );
#15 = STYLED_ITEM( '', ( #43 ), #44 );
#16 = STYLED_ITEM( '', ( #45 ), #46 );
#17 = STYLED_ITEM( '', ( #47 ), #48 );
#18 = STYLED_ITEM( '', ( #49 ), #50 );
#19 = STYLED_ITEM( '', ( #51 ), #52 );
#20 = APPLICATION_CONTEXT( 'core data for automotive mechanical design processes' );
#21 = PRODUCT_CATEGORY( 'part', 'NONE' );
#22 = PRODUCT_RELATED_PRODUCT_CATEGORY( 'detail', ' ', ( #53 ) );
#23 = PRODUCT_DEFINITION_SHAPE( 'NONE', 'NONE', #54 );
#24 = ADVANCED_BREP_SHAPE_REPRESENTATION( '1', ( #55, #56 ), #6 );
#27 = UNCERTAINTY_MEASURE_WITH_UNIT( LENGTH_MEASURE( 0.00100000000000000 ), #29, '', '' );
#29 =  ( CONVERSION_BASED_UNIT( 'MILLIMETRE', #59 )LENGTH_UNIT(  )NAMED_UNIT( #62 ) );
#30 =  ( NAMED_UNIT( #64 )PLANE_ANGLE_UNIT(  )SI_UNIT( $, .RADIAN. ) );
#31 =  ( NAMED_UNIT( #64 )SI_UNIT( $, .STERADIAN. )SOLID_ANGLE_UNIT(  ) );
#33 = PRESENTATION_STYLE_ASSIGNMENT( ( #70 ) );
#34 = ADVANCED_FACE( '', ( #71, #72 ), #73, .F. );
#35 = PRESENTATION_STYLE_ASSIGNMENT( ( #74 ) );
#36 = ADVANCED_FACE( '', ( #75, #76, #77, #78, #79 ), #80, .F. );
#37 = PRESENTATION_STYLE_ASSIGNMENT( ( #81 ) );
#38 = ADVANCED_FACE( '', ( #82, #83 ), #84, .F. );
#39 = PRESENTATION_STYLE_ASSIGNMENT( ( #85 ) );
#40 = ADVANCED_FACE( '', ( #86, #87, #88, #89, #90 ), #91, .T. );
#41 = PRESENTATION_STYLE_ASSIGNMENT( ( #92 ) );
#42 = ADVANCED_FACE( '', ( #93 ), #94, .F. );
#43 = PRESENTATION_STYLE_ASSIGNMENT( ( #95 ) );
#44 = ADVANCED_FACE( '', ( #96 ), #97, .F. );
#45 = PRESENTATION_STYLE_ASSIGNMENT( ( #98 ) );
#46 = ADVANCED_FACE( '', ( #99, #100 ), #101, .F. );
#47 = PRESENTATION_STYLE_ASSIGNMENT( ( #102 ) );
#48 = ADVANCED_FACE( '', ( #103 ), #104, .F. );
#49 = PRESENTATION_STYLE_ASSIGNMENT( ( #105 ) );
#50 = ADVANCED_FACE( '', ( #106 ), #107, .F. );
#51 = PRESENTATION_STYLE_ASSIGNMENT( ( #108 ) );
#52 = ADVANCED_FACE( '', ( #109, #110 ), #111, .F. );
#53 = PRODUCT( '1', '1', 'PART-1-DESC', ( #112 ) );
#54 = PRODUCT_DEFINITION( 'NONE', 'NONE', #113, #2 );
#55 = MANIFOLD_SOLID_BREP( '1', #114 );
#56 = AXIS2_PLACEMENT_3D( '', #115, #116, #117 );
#59 = LENGTH_MEASURE_WITH_UNIT( LENGTH_MEASURE( 1.00000000000000 ), #118 );
#62 = DIMENSIONAL_EXPONENTS( 1.00000000000000, 0.000000000000000, 0.000000000000000, 0.000000000000000, 0.000000000000000, 0.000000000000000, 0.000000000000000 );
#64 = DIMENSIONAL_EXPONENTS( 0.000000000000000, 0.000000000000000, 0.000000000000000, 0.000000000000000, 0.000000000000000, 0.000000000000000, 0.000000000000000 );
#70 = SURFACE_STYLE_USAGE( .BOTH., #119 );
#71 = FACE_OUTER_BOUND( '', #120, .T. );
#72 = FACE_OUTER_BOUND( '', #121, .T. );
#73 = CYLINDRICAL_SURFACE( '', #122, 7.00000000000000 );
#74 = SURFACE_STYLE_USAGE( .BOTH., #123 );
#75 = FACE_BOUND( '', #124, .T. );
#76 = FACE_BOUND( '', #125, .T. );
#77 = FACE_BOUND( '', #126, .T. );
#78 = FACE_BOUND( '', #127, .T. );
#79 = FACE_OUTER_BOUND( '', #128, .T. );
#80 = PLANE( '', #129 );
#81 = SURFACE_STYLE_USAGE( .BOTH., #130 );
#82 = FACE_OUTER_BOUND( '', #131, .T. );
#83 = FACE_OUTER_BOUND( '', #132, .T. );
#84 = CYLINDRICAL_SURFACE( '', #133, 15.0000000000000 );
#85 = SURFACE_STYLE_USAGE( .BOTH., #134 );
#86 = FACE_BOUND( '', #135, .T. );
#87 = FACE_BOUND( '', #136, .T. );
#88 = FACE_BOUND( '', #137, .T. );
#89 = FACE_BOUND( '', #138, .T. );
#90 = FACE_OUTER_BOUND( '', #139, .T. );
#91 = PLANE( '', #140 );
#92 = SURFACE_STYLE_USAGE( .BOTH., #141 );
#93 = FACE_OUTER_BOUND( '', #142, .T. );
#94 = PLANE( '', #143 );
#95 = SURFACE_STYLE_USAGE( .BOTH., #144 );
#96 = FACE_OUTER_BOUND( '', #145, .T. );
#97 = PLANE( '', #146 );
#98 = SURFACE_STYLE_USAGE( .BOTH., #147 );
#99 = FACE_OUTER_BOUND( '', #148, .T. );
#100 = FACE_OUTER_BOUND( '', #149, .T. );
#101 = CYLINDRICAL_SURFACE( '', #150, 7.00000000000000 );
#102 = SURFACE_STYLE_USAGE( .BOTH., #151 );
#103 = FACE_OUTER_BOUND( '', #152, .T. );
#104 = PLANE( '', #153 );
#105 = SURFACE_STYLE_USAGE( .BOTH., #154 );
#106 = FACE_OUTER_BOUND( '', #155, .T. );
#107 = PLANE( '', #156 );
#108 = SURFACE_STYLE_USAGE( .BOTH., #157 );
#109 = FACE_OUTER_BOUND( '', #158, .T. );
#110 = FACE_OUTER_BOUND( '', #159, .T. );
#111 = CYLINDRICAL_SURFACE( '', #160, 15.0000000000000 );
#112 = PRODUCT_CONTEXT( '', #20, 'mechanical' );
#113 = PRODUCT_DEFINITION_FORMATION_WITH_SPECIFIED_SOURCE( ' ', 'NONE', #53, .NOT_KNOWN. );
#114 = CLOSED_SHELL( '', ( #34, #46, #40, #48, #44, #50, #36, #42, #38, #52 ) );
#115 = CARTESIAN_POINT( '', ( 0.000000000000000, 0.000000000000000, 0.000000000000000 ) );
#116 = DIRECTION( '', ( 0.000000000000000, 0.000000000000000, 1.00000000000000 ) );
#117 = DIRECTION( '', ( 1.00000000000000, 0.000000000000000, 0.000000000000000 ) );
#118 =  ( LENGTH_UNIT(  )NAMED_UNIT( #62 )SI_UNIT( .MILLI., .METRE. ) );
#119 = SURFACE_SIDE_STYLE( '', ( #162 ) );
#120 = EDGE_LOOP( '', ( #163 ) );
#121 = EDGE_LOOP( '', ( #164 ) );
#122 = AXIS2_PLACEMENT_3D( '', #165, #166, #167 );
#123 = SURFACE_SIDE_STYLE( '', ( #168 ) );
#124 = EDGE_LOOP( '', ( #169 ) );
#125 = EDGE_LOOP( '', ( #170 ) );
#126 = EDGE_LOOP( '', ( #171 ) );
#127 = EDGE_LOOP( '', ( #172 ) );
#128 = EDGE_LOOP( '', ( #173, #174, #175, #176 ) );
#129 = AXIS2_PLACEMENT_3D( '', #177, #178, #179 );
#130 = SURFACE_SIDE_STYLE( '', ( #180 ) );
#131 = EDGE_LOOP( '', ( #181 ) );
#132 = EDGE_LOOP( '', ( #182 ) );
#133 = AXIS2_PLACEMENT_3D( '', #183, #184, #185 );
#134 = SURFACE_SIDE_STYLE( '', ( #186 ) );
#135 = EDGE_LOOP( '', ( #187 ) );
#136 = EDGE_LOOP( '', ( #188 ) );
#137 = EDGE_LOOP( '', ( #189 ) );
#138 = EDGE_LOOP( '', ( #190 ) );
#139 = EDGE_LOOP( '', ( #191, #192, #193, #194 ) );
#140 = AXIS2_PLACEMENT_3D( '', #195, #196, #197 );
#141 = SURFACE_SIDE_STYLE( '', ( #198 ) );
#142 = EDGE_LOOP( '', ( #199, #200, #201, #202 ) );
#143 = AXIS2_PLACEMENT_3D( '', #203, #204, #205 );
#144 = SURFACE_SIDE_STYLE( '', ( #206 ) );
#145 = EDGE_LOOP( '', ( #207, #208, #209, #210 ) );
#146 = AXIS2_PLACEMENT_3D( '', #211, #212, #213 );
#147 = SURFACE_SIDE_STYLE( '', ( #214 ) );
#148 = EDGE_LOOP( '', ( #215 ) );
#149 = EDGE_LOOP( '', ( #216 ) );
#150 = AXIS2_PLACEMENT_3D( '', #217, #218, #219 );
#151 = SURFACE_SIDE_STYLE( '', ( #220 ) );
#152 = EDGE_LOOP( '', ( #221, #222, #223, #224 ) );
#153 = AXIS2_PLACEMENT_3D( '', #225, #226, #227 );
#154 = SURFACE_SIDE_STYLE( '', ( #228 ) );
#155 = EDGE_LOOP( '', ( #229, #230, #231, #232 ) );
#156 = AXIS2_PLACEMENT_3D( '', #233, #234, #235 );
#157 = SURFACE_SIDE_STYLE( '', ( #236 ) );
#158 = EDGE_LOOP( '', ( #237 ) );
#159 = EDGE_LOOP( '', ( #238 ) );
#160 = AXIS2_PLACEMENT_3D( '', #239, #240, #241 );
#162 = SURFACE_STYLE_FILL_AREA( #242 );
#163 = ORIENTED_EDGE( '', *, *, #243, .T. );
#164 = ORIENTED_EDGE( '', *, *, #244, .F. );
#165 = CARTESIAN_POINT( '', ( -162.000000000000, 4.50000000000000, 96.0000000000000 ) );
#166 = DIRECTION( '', ( -0.000000000000000, -0.000000000000000, 1.00000000000000 ) );
#167 = DIRECTION( '', ( 0.000000000000000, -1.00000000000000, 0.000000000000000 ) );
#168 = SURFACE_STYLE_FILL_AREA( #245 );
#169 = ORIENTED_EDGE( '', *, *, #246, .T. );
#170 = ORIENTED_EDGE( '', *, *, #247, .T. );
#171 = ORIENTED_EDGE( '', *, *, #248, .T. );
#172 = ORIENTED_EDGE( '', *, *, #244, .T. );
#173 = ORIENTED_EDGE( '', *, *, #249, .T. );
#174 = ORIENTED_EDGE( '', *, *, #250, .T. );
#175 = ORIENTED_EDGE( '', *, *, #251, .T. );
#176 = ORIENTED_EDGE( '', *, *, #252, .T. );
#177 = CARTESIAN_POINT( '', ( 223.000000000000, 21.5000000000000, 96.0000000000000 ) );
#178 = DIRECTION( '', ( 0.000000000000000, 0.000000000000000, -1.00000000000000 ) );
#179 = DIRECTION( '', ( -1.00000000000000, 0.000000000000000, 0.000000000000000 ) );
#180 = SURFACE_STYLE_FILL_AREA( #253 );
#181 = ORIENTED_EDGE( '', *, *, #254, .T. );
#182 = ORIENTED_EDGE( '', *, *, #247, .F. );
#183 = CARTESIAN_POINT( '', ( 197.000000000000, 4.50000000000006, 96.0000000000000 ) );
#184 = DIRECTION( '', ( -0.000000000000000, -0.000000000000000, 1.00000000000000 ) );
#185 = DIRECTION( '', ( 0.000000000000000, -1.00000000000000, 0.000000000000000 ) );
#186 = SURFACE_STYLE_FILL_AREA( #255 );
#187 = ORIENTED_EDGE( '', *, *, #256, .F. );
#188 = ORIENTED_EDGE( '', *, *, #254, .F. );
#189 = ORIENTED_EDGE( '', *, *, #257, .F. );
#190 = ORIENTED_EDGE( '', *, *, #243, .F. );
#191 = ORIENTED_EDGE( '', *, *, #258, .F. );
#192 = ORIENTED_EDGE( '', *, *, #259, .F. );
#193 = ORIENTED_EDGE( '', *, *, #260, .F. );
#194 = ORIENTED_EDGE( '', *, *, #261, .F. );
#195 = CARTESIAN_POINT( '', ( 223.000000000000, 21.5000000000000, 0.000000000000000 ) );
#196 = DIRECTION( '', ( 0.000000000000000, 0.000000000000000, -1.00000000000000 ) );
#197 = DIRECTION( '', ( -1.00000000000000, 0.000000000000000, 0.000000000000000 ) );
#198 = SURFACE_STYLE_FILL_AREA( #262 );
#199 = ORIENTED_EDGE( '', *, *, #260, .T. );
#200 = ORIENTED_EDGE( '', *, *, #263, .F. );
#201 = ORIENTED_EDGE( '', *, *, #251, .F. );
#202 = ORIENTED_EDGE( '', *, *, #264, .T. );
#203 = CARTESIAN_POINT( '', ( -223.000000000000, -21.5000000000000, 96.0000000000000 ) );
#204 = DIRECTION( '', ( 6.22322323220379E-017, 1.00000000000000, 0.000000000000000 ) );
#205 = DIRECTION( '', ( -1.00000000000000, 6.22322323220379E-017, 0.000000000000000 ) );
#206 = SURFACE_STYLE_FILL_AREA( #265 );
#207 = ORIENTED_EDGE( '', *, *, #261, .T. );
#208 = ORIENTED_EDGE( '', *, *, #264, .F. );
#209 = ORIENTED_EDGE( '', *, *, #250, .F. );
#210 = ORIENTED_EDGE( '', *, *, #266, .T. );
#211 = CARTESIAN_POINT( '', ( -223.000000000000, 21.5000000000000, 96.0000000000000 ) );
#212 = DIRECTION( '', ( 1.00000000000000, 6.45478502689045E-016, 0.000000000000000 ) );
#213 = DIRECTION( '', ( -6.45478502689045E-016, 1.00000000000000, 0.000000000000000 ) );
#214 = SURFACE_STYLE_FILL_AREA( #267 );
#215 = ORIENTED_EDGE( '', *, *, #257, .T. );
#216 = ORIENTED_EDGE( '', *, *, #248, .F. );
#217 = CARTESIAN_POINT( '', ( 162.000000000000, 4.50000000000008, 96.0000000000000 ) );
#218 = DIRECTION( '', ( -0.000000000000000, -0.000000000000000, 1.00000000000000 ) );
#219 = DIRECTION( '', ( 0.000000000000000, -1.00000000000000, 0.000000000000000 ) );
#220 = SURFACE_STYLE_FILL_AREA( #268 );
#221 = ORIENTED_EDGE( '', *, *, #258, .T. );
#222 = ORIENTED_EDGE( '', *, *, #266, .F. );
#223 = ORIENTED_EDGE( '', *, *, #249, .F. );
#224 = ORIENTED_EDGE( '', *, *, #269, .T. );
#225 = CARTESIAN_POINT( '', ( 223.000000000000, 21.5000000000000, 96.0000000000000 ) );
#226 = DIRECTION( '', ( -1.47801551764840E-016, -1.00000000000000, 0.000000000000000 ) );
#227 = DIRECTION( '', ( 1.00000000000000, -1.47801551764840E-016, 0.000000000000000 ) );
#228 = SURFACE_STYLE_FILL_AREA( #270 );
#229 = ORIENTED_EDGE( '', *, *, #259, .T. );
#230 = ORIENTED_EDGE( '', *, *, #269, .F. );
#231 = ORIENTED_EDGE( '', *, *, #252, .F. );
#232 = ORIENTED_EDGE( '', *, *, #263, .T. );
#233 = CARTESIAN_POINT( '', ( 223.000000000000, -21.5000000000000, 96.0000000000000 ) );
#234 = DIRECTION( '', ( -1.00000000000000, 0.000000000000000, 0.000000000000000 ) );
#235 = DIRECTION( '', ( 0.000000000000000, 0.000000000000000, 1.00000000000000 ) );
#236 = SURFACE_STYLE_FILL_AREA( #271 );
#237 = ORIENTED_EDGE( '', *, *, #256, .T. );
#238 = ORIENTED_EDGE( '', *, *, #246, .F. );
#239 = CARTESIAN_POINT( '', ( -197.000000000000, 4.50000000000006, 96.0000000000000 ) );
#240 = DIRECTION( '', ( -0.000000000000000, -0.000000000000000, 1.00000000000000 ) );
#241 = DIRECTION( '', ( 0.000000000000000, -1.00000000000000, 0.000000000000000 ) );
#242 = FILL_AREA_STYLE( '', ( #272 ) );
#243 = EDGE_CURVE( '', #273, #273, #274, .T. );
#244 = EDGE_CURVE( '', #275, #275, #276, .T. );
#245 = FILL_AREA_STYLE( '', ( #277 ) );
#246 = EDGE_CURVE( '', #278, #278, #279, .T. );
#247 = EDGE_CURVE( '', #280, #280, #281, .T. );
#248 = EDGE_CURVE( '', #282, #282, #283, .T. );
#249 = EDGE_CURVE( '', #284, #285, #286, .T. );
#250 = EDGE_CURVE( '', #285, #287, #288, .T. );
#251 = EDGE_CURVE( '', #287, #289, #290, .T. );
#252 = EDGE_CURVE( '', #289, #284, #291, .T. );
#253 = FILL_AREA_STYLE( '', ( #292 ) );
#254 = EDGE_CURVE( '', #293, #293, #294, .T. );
#255 = FILL_AREA_STYLE( '', ( #295 ) );
#256 = EDGE_CURVE( '', #296, #296, #297, .T. );
#257 = EDGE_CURVE( '', #298, #298, #299, .T. );
#258 = EDGE_CURVE( '', #300, #301, #302, .T. );
#259 = EDGE_CURVE( '', #303, #300, #304, .T. );
#260 = EDGE_CURVE( '', #305, #303, #306, .T. );
#261 = EDGE_CURVE( '', #301, #305, #307, .T. );
#262 = FILL_AREA_STYLE( '', ( #308 ) );
#263 = EDGE_CURVE( '', #289, #303, #309, .T. );
#264 = EDGE_CURVE( '', #287, #305, #310, .T. );
#265 = FILL_AREA_STYLE( '', ( #311 ) );
#266 = EDGE_CURVE( '', #285, #301, #312, .T. );
#267 = FILL_AREA_STYLE( '', ( #313 ) );
#268 = FILL_AREA_STYLE( '', ( #314 ) );
#269 = EDGE_CURVE( '', #284, #300, #315, .T. );
#270 = FILL_AREA_STYLE( '', ( #316 ) );
#271 = FILL_AREA_STYLE( '', ( #317 ) );
#272 = FILL_AREA_STYLE_COLOUR( '', #318 );
#273 = VERTEX_POINT( '', #319 );
#274 = CIRCLE( '', #320, 7.00000000000000 );
#275 = VERTEX_POINT( '', #321 );
#276 = CIRCLE( '', #322, 7.00000000000000 );
#277 = FILL_AREA_STYLE_COLOUR( '', #323 );
#278 = VERTEX_POINT( '', #324 );
#279 = CIRCLE( '', #325, 15.0000000000000 );
#280 = VERTEX_POINT( '', #326 );
#281 = CIRCLE( '', #327, 15.0000000000000 );
#282 = VERTEX_POINT( '', #328 );
#283 = CIRCLE( '', #329, 7.00000000000000 );
#284 = VERTEX_POINT( '', #330 );
#285 = VERTEX_POINT( '', #331 );
#286 = LINE( '', #332, #333 );
#287 = VERTEX_POINT( '', #334 );
#288 = LINE( '', #335, #336 );
#289 = VERTEX_POINT( '', #337 );
#290 = LINE( '', #338, #339 );
#291 = LINE( '', #340, #341 );
#292 = FILL_AREA_STYLE_COLOUR( '', #342 );
#293 = VERTEX_POINT( '', #343 );
#294 = CIRCLE( '', #344, 15.0000000000000 );
#295 = FILL_AREA_STYLE_COLOUR( '', #345 );
#296 = VERTEX_POINT( '', #346 );
#297 = CIRCLE( '', #347, 15.0000000000000 );
#298 = VERTEX_POINT( '', #348 );
#299 = CIRCLE( '', #349, 7.00000000000000 );
#300 = VERTEX_POINT( '', #350 );
#301 = VERTEX_POINT( '', #351 );
#302 = LINE( '', #352, #353 );
#303 = VERTEX_POINT( '', #354 );
#304 = LINE( '', #355, #356 );
#305 = VERTEX_POINT( '', #357 );
#306 = LINE( '', #358, #359 );
#307 = LINE( '', #360, #361 );
#308 = FILL_AREA_STYLE_COLOUR( '', #362 );
#309 = LINE( '', #363, #364 );
#310 = LINE( '', #365, #366 );
#311 = FILL_AREA_STYLE_COLOUR( '', #367 );
#312 = LINE( '', #368, #369 );
#313 = FILL_AREA_STYLE_COLOUR( '', #370 );
#314 = FILL_AREA_STYLE_COLOUR( '', #371 );
#315 = LINE( '', #372, #373 );
#316 = FILL_AREA_STYLE_COLOUR( '', #374 );
#317 = FILL_AREA_STYLE_COLOUR( '', #375 );
#318 = COLOUR_RGB( '', 0.752941191196442, 0.752941191196442, 0.752941191196442 );
#319 = CARTESIAN_POINT( '', ( -169.000000000000, 4.50000000000000, 0.000000000000000 ) );
#320 = AXIS2_PLACEMENT_3D( '', #376, #377, #378 );
#321 = CARTESIAN_POINT( '', ( -162.000000000000, -2.50000000000000, 96.0000000000000 ) );
#322 = AXIS2_PLACEMENT_3D( '', #379, #380, #381 );
#323 = COLOUR_RGB( '', 0.752941191196442, 0.752941191196442, 0.752941191196442 );
#324 = CARTESIAN_POINT( '', ( -197.000000000000, -10.4999999999999, 96.0000000000000 ) );
#325 = AXIS2_PLACEMENT_3D( '', #382, #383, #384 );
#326 = CARTESIAN_POINT( '', ( 197.000000000000, -10.4999999999999, 96.0000000000000 ) );
#327 = AXIS2_PLACEMENT_3D( '', #385, #386, #387 );
#328 = CARTESIAN_POINT( '', ( 162.000000000000, -2.49999999999992, 96.0000000000000 ) );
#329 = AXIS2_PLACEMENT_3D( '', #388, #389, #390 );
#330 = CARTESIAN_POINT( '', ( 223.000000000000, 21.5000000000000, 96.0000000000000 ) );
#331 = CARTESIAN_POINT( '', ( -223.000000000000, 21.5000000000000, 96.0000000000000 ) );
#332 = CARTESIAN_POINT( '', ( 223.000000000000, 21.5000000000000, 96.0000000000000 ) );
#333 = VECTOR( '', #391, 1000.00000000000 );
#334 = CARTESIAN_POINT( '', ( -223.000000000000, -21.5000000000000, 96.0000000000000 ) );
#335 = CARTESIAN_POINT( '', ( -223.000000000000, 21.5000000000000, 96.0000000000000 ) );
#336 = VECTOR( '', #392, 1000.00000000000 );
#337 = CARTESIAN_POINT( '', ( 223.000000000000, -21.5000000000000, 96.0000000000000 ) );
#338 = CARTESIAN_POINT( '', ( -223.000000000000, -21.5000000000000, 96.0000000000000 ) );
#339 = VECTOR( '', #393, 1000.00000000000 );
#340 = CARTESIAN_POINT( '', ( 223.000000000000, -21.5000000000000, 96.0000000000000 ) );
#341 = VECTOR( '', #394, 1000.00000000000 );
#342 = COLOUR_RGB( '', 0.752941191196442, 0.752941191196442, 0.752941191196442 );
#343 = CARTESIAN_POINT( '', ( 182.000000000000, 4.50000000000006, 0.000000000000000 ) );
#344 = AXIS2_PLACEMENT_3D( '', #395, #396, #397 );
#345 = COLOUR_RGB( '', 0.752941191196442, 0.752941191196442, 0.752941191196442 );
#346 = CARTESIAN_POINT( '', ( -212.000000000000, 4.50000000000006, 0.000000000000000 ) );
#347 = AXIS2_PLACEMENT_3D( '', #398, #399, #400 );
#348 = CARTESIAN_POINT( '', ( 155.000000000000, 4.50000000000008, 0.000000000000000 ) );
#349 = AXIS2_PLACEMENT_3D( '', #401, #402, #403 );
#350 = CARTESIAN_POINT( '', ( 223.000000000000, 21.5000000000000, 0.000000000000000 ) );
#351 = CARTESIAN_POINT( '', ( -223.000000000000, 21.5000000000000, 0.000000000000000 ) );
#352 = CARTESIAN_POINT( '', ( 223.000000000000, 21.5000000000000, 0.000000000000000 ) );
#353 = VECTOR( '', #404, 1000.00000000000 );
#354 = CARTESIAN_POINT( '', ( 223.000000000000, -21.5000000000000, 0.000000000000000 ) );
#355 = CARTESIAN_POINT( '', ( 223.000000000000, -21.5000000000000, 0.000000000000000 ) );
#356 = VECTOR( '', #405, 1000.00000000000 );
#357 = CARTESIAN_POINT( '', ( -223.000000000000, -21.5000000000000, 0.000000000000000 ) );
#358 = CARTESIAN_POINT( '', ( -223.000000000000, -21.5000000000000, 0.000000000000000 ) );
#359 = VECTOR( '', #406, 1000.00000000000 );
#360 = CARTESIAN_POINT( '', ( -223.000000000000, 21.5000000000000, 0.000000000000000 ) );
#361 = VECTOR( '', #407, 1000.00000000000 );
#362 = COLOUR_RGB( '', 0.752941191196442, 0.752941191196442, 0.752941191196442 );
#363 = CARTESIAN_POINT( '', ( 223.000000000000, -21.5000000000000, 96.0000000000000 ) );
#364 = VECTOR( '', #408, 1000.00000000000 );
#365 = CARTESIAN_POINT( '', ( -223.000000000000, -21.5000000000000, 96.0000000000000 ) );
#366 = VECTOR( '', #409, 1000.00000000000 );
#367 = COLOUR_RGB( '', 0.752941191196442, 0.752941191196442, 0.752941191196442 );
#368 = CARTESIAN_POINT( '', ( -223.000000000000, 21.5000000000000, 96.0000000000000 ) );
#369 = VECTOR( '', #410, 1000.00000000000 );
#370 = COLOUR_RGB( '', 0.752941191196442, 0.752941191196442, 0.752941191196442 );
#371 = COLOUR_RGB( '', 0.752941191196442, 0.752941191196442, 0.752941191196442 );
#372 = CARTESIAN_POINT( '', ( 223.000000000000, 21.5000000000000, 96.0000000000000 ) );
#373 = VECTOR( '', #411, 1000.00000000000 );
#374 = COLOUR_RGB( '', 0.752941191196442, 0.752941191196442, 0.752941191196442 );
#375 = COLOUR_RGB( '', 0.752941191196442, 0.752941191196442, 0.752941191196442 );
#376 = CARTESIAN_POINT( '', ( -162.000000000000, 4.50000000000000, 0.000000000000000 ) );
#377 = DIRECTION( '', ( 0.000000000000000, 0.000000000000000, -1.00000000000000 ) );
#378 = DIRECTION( '', ( -1.00000000000000, 0.000000000000000, 0.000000000000000 ) );
#379 = CARTESIAN_POINT( '', ( -162.000000000000, 4.50000000000000, 96.0000000000000 ) );
#380 = DIRECTION( '', ( 0.000000000000000, 0.000000000000000, -1.00000000000000 ) );
#381 = DIRECTION( '', ( 0.000000000000000, -1.00000000000000, 0.000000000000000 ) );
#382 = CARTESIAN_POINT( '', ( -197.000000000000, 4.50000000000006, 96.0000000000000 ) );
#383 = DIRECTION( '', ( 0.000000000000000, 0.000000000000000, -1.00000000000000 ) );
#384 = DIRECTION( '', ( 0.000000000000000, -1.00000000000000, 0.000000000000000 ) );
#385 = CARTESIAN_POINT( '', ( 197.000000000000, 4.50000000000006, 96.0000000000000 ) );
#386 = DIRECTION( '', ( 0.000000000000000, 0.000000000000000, -1.00000000000000 ) );
#387 = DIRECTION( '', ( 0.000000000000000, -1.00000000000000, 0.000000000000000 ) );
#388 = CARTESIAN_POINT( '', ( 162.000000000000, 4.50000000000008, 96.0000000000000 ) );
#389 = DIRECTION( '', ( 0.000000000000000, 0.000000000000000, -1.00000000000000 ) );
#390 = DIRECTION( '', ( 0.000000000000000, -1.00000000000000, 0.000000000000000 ) );
#391 = DIRECTION( '', ( -1.00000000000000, 1.47801551764840E-016, 0.000000000000000 ) );
#392 = DIRECTION( '', ( 6.45478502689045E-016, -1.00000000000000, 0.000000000000000 ) );
#393 = DIRECTION( '', ( 1.00000000000000, -6.22322323220379E-017, 0.000000000000000 ) );
#394 = DIRECTION( '', ( 0.000000000000000, 1.00000000000000, 0.000000000000000 ) );
#395 = CARTESIAN_POINT( '', ( 197.000000000000, 4.50000000000006, 0.000000000000000 ) );
#396 = DIRECTION( '', ( 0.000000000000000, 0.000000000000000, -1.00000000000000 ) );
#397 = DIRECTION( '', ( -1.00000000000000, 0.000000000000000, 0.000000000000000 ) );
#398 = CARTESIAN_POINT( '', ( -197.000000000000, 4.50000000000006, 0.000000000000000 ) );
#399 = DIRECTION( '', ( 0.000000000000000, 0.000000000000000, -1.00000000000000 ) );
#400 = DIRECTION( '', ( -1.00000000000000, 0.000000000000000, 0.000000000000000 ) );
#401 = CARTESIAN_POINT( '', ( 162.000000000000, 4.50000000000008, 0.000000000000000 ) );
#402 = DIRECTION( '', ( 0.000000000000000, 0.000000000000000, -1.00000000000000 ) );
#403 = DIRECTION( '', ( -1.00000000000000, 0.000000000000000, 0.000000000000000 ) );
#404 = DIRECTION( '', ( -1.00000000000000, 1.47801551764840E-016, 0.000000000000000 ) );
#405 = DIRECTION( '', ( 0.000000000000000, 1.00000000000000, 0.000000000000000 ) );
#406 = DIRECTION( '', ( 1.00000000000000, -6.22322323220379E-017, 0.000000000000000 ) );
#407 = DIRECTION( '', ( 6.45478502689045E-016, -1.00000000000000, 0.000000000000000 ) );
#408 = DIRECTION( '', ( 0.000000000000000, 0.000000000000000, -1.00000000000000 ) );
#409 = DIRECTION( '', ( 0.000000000000000, 0.000000000000000, -1.00000000000000 ) );
#410 = DIRECTION( '', ( 0.000000000000000, 0.000000000000000, -1.00000000000000 ) );
#411 = DIRECTION( '', ( 0.000000000000000, 0.000000000000000, -1.00000000000000 ) );
ENDSEC;
END-ISO-10303-21;
