ISO-10303-21;
HEADER;
FILE_DESCRIPTION( ( 'Unknown' ), '1' );
FILE_NAME( 'M:/Piezas_3D/Placas_Par/G2/OS_G2_346x346x076_.stp', 'Unknown', ( 'Unknown' ), ( 'Unknown' ), 'PSStep 16.0.42', 'Unknown', '  ' );
FILE_SCHEMA( ( 'AUTOMOTIVE_DESIGN { 1 0 10303 214 1 1 1 1 }' ) );
ENDSEC;
DATA;
#1 = MECHANICAL_DESIGN_GEOMETRIC_PRESENTATION_REPRESENTATION( ' ', ( #10, #11, #12, #13, #14, #15, #16, #17, #18, #19 ), #6 );
#2 = PRODUCT_DEFINITION_CONTEXT( '', #20, 'design' );
#3 = APPLICATION_PROTOCOL_DEFINITION( 'international standard', 'automotive_design', 2001, #20 );
#4 = PRODUCT_CATEGORY_RELATIONSHIP( 'NONE', 'NONE', #21, #22 );
#5 = SHAPE_DEFINITION_REPRESENTATION( #23, #24 );
#6 =  ( GEOMETRIC_REPRESENTATION_CONTEXT( 3 )GLOBAL_UNCERTAINTY_ASSIGNED_CONTEXT( ( #27 ) )GLOBAL_UNIT_ASSIGNED_CONTEXT( ( #29, #30, #31 ) )REPRESENTATION_CONTEXT( 'NONE', 'WORKSPACE' ) );
#10 = STYLED_ITEM( '', ( #33 ), #34 );
#11 = STYLED_ITEM( '', ( #35 ), #36 );
#12 = STYLED_ITEM( '', ( #37 ), #38 );
#13 = STYLED_ITEM( '', ( #39 ), #40 );
#14 = STYLED_ITEM( '', ( #41 ), #42 );
#15 = STYLED_ITEM( '', ( #43 ), #44 );
#16 = STYLED_ITEM( '', ( #45 ), #46 );
#17 = STYLED_ITEM( '', ( #47 ), #48 );
#18 = STYLED_ITEM( '', ( #49 ), #50 );
#19 = STYLED_ITEM( '', ( #51 ), #52 );
#20 = APPLICATION_CONTEXT( 'core data for automotive mechanical design processes' );
#21 = PRODUCT_CATEGORY( 'part', 'NONE' );
#22 = PRODUCT_RELATED_PRODUCT_CATEGORY( 'detail', ' ', ( #53 ) );
#23 = PRODUCT_DEFINITION_SHAPE( 'NONE', 'NONE', #54 );
#24 = ADVANCED_BREP_SHAPE_REPRESENTATION( '1', ( #55, #56 ), #6 );
#27 = UNCERTAINTY_MEASURE_WITH_UNIT( LENGTH_MEASURE( 0.00100000000000000 ), #29, '', '' );
#29 =  ( CONVERSION_BASED_UNIT( 'MILLIMETRE', #59 )LENGTH_UNIT(  )NAMED_UNIT( #62 ) );
#30 =  ( NAMED_UNIT( #64 )PLANE_ANGLE_UNIT(  )SI_UNIT( $, .RADIAN. ) );
#31 =  ( NAMED_UNIT( #64 )SI_UNIT( $, .STERADIAN. )SOLID_ANGLE_UNIT(  ) );
#33 = PRESENTATION_STYLE_ASSIGNMENT( ( #70 ) );
#34 = ADVANCED_FACE( '', ( #71, #72 ), #73, .F. );
#35 = PRESENTATION_STYLE_ASSIGNMENT( ( #74 ) );
#36 = ADVANCED_FACE( '', ( #75 ), #76, .F. );
#37 = PRESENTATION_STYLE_ASSIGNMENT( ( #77 ) );
#38 = ADVANCED_FACE( '', ( #78 ), #79, .F. );
#39 = PRESENTATION_STYLE_ASSIGNMENT( ( #80 ) );
#40 = ADVANCED_FACE( '', ( #81, #82 ), #83, .F. );
#41 = PRESENTATION_STYLE_ASSIGNMENT( ( #84 ) );
#42 = ADVANCED_FACE( '', ( #85 ), #86, .F. );
#43 = PRESENTATION_STYLE_ASSIGNMENT( ( #87 ) );
#44 = ADVANCED_FACE( '', ( #88, #89, #90, #91, #92 ), #93, .F. );
#45 = PRESENTATION_STYLE_ASSIGNMENT( ( #94 ) );
#46 = ADVANCED_FACE( '', ( #95, #96 ), #97, .F. );
#47 = PRESENTATION_STYLE_ASSIGNMENT( ( #98 ) );
#48 = ADVANCED_FACE( '', ( #99 ), #100, .F. );
#49 = PRESENTATION_STYLE_ASSIGNMENT( ( #101 ) );
#50 = ADVANCED_FACE( '', ( #102, #103, #104, #105, #106 ), #107, .T. );
#51 = PRESENTATION_STYLE_ASSIGNMENT( ( #108 ) );
#52 = ADVANCED_FACE( '', ( #109, #110 ), #111, .F. );
#53 = PRODUCT( '1', '1', 'PART-1-DESC', ( #112 ) );
#54 = PRODUCT_DEFINITION( 'NONE', 'NONE', #113, #2 );
#55 = MANIFOLD_SOLID_BREP( '1', #114 );
#56 = AXIS2_PLACEMENT_3D( '', #115, #116, #117 );
#59 = LENGTH_MEASURE_WITH_UNIT( LENGTH_MEASURE( 1.00000000000000 ), #118 );
#62 = DIMENSIONAL_EXPONENTS( 1.00000000000000, 0.000000000000000, 0.000000000000000, 0.000000000000000, 0.000000000000000, 0.000000000000000, 0.000000000000000 );
#64 = DIMENSIONAL_EXPONENTS( 0.000000000000000, 0.000000000000000, 0.000000000000000, 0.000000000000000, 0.000000000000000, 0.000000000000000, 0.000000000000000 );
#70 = SURFACE_STYLE_USAGE( .BOTH., #119 );
#71 = FACE_OUTER_BOUND( '', #120, .T. );
#72 = FACE_OUTER_BOUND( '', #121, .T. );
#73 = CYLINDRICAL_SURFACE( '', #122, 7.00000000000000 );
#74 = SURFACE_STYLE_USAGE( .BOTH., #123 );
#75 = FACE_OUTER_BOUND( '', #124, .T. );
#76 = PLANE( '', #125 );
#77 = SURFACE_STYLE_USAGE( .BOTH., #126 );
#78 = FACE_OUTER_BOUND( '', #127, .T. );
#79 = PLANE( '', #128 );
#80 = SURFACE_STYLE_USAGE( .BOTH., #129 );
#81 = FACE_OUTER_BOUND( '', #130, .T. );
#82 = FACE_OUTER_BOUND( '', #131, .T. );
#83 = CYLINDRICAL_SURFACE( '', #132, 15.0000000000000 );
#84 = SURFACE_STYLE_USAGE( .BOTH., #133 );
#85 = FACE_OUTER_BOUND( '', #134, .T. );
#86 = PLANE( '', #135 );
#87 = SURFACE_STYLE_USAGE( .BOTH., #136 );
#88 = FACE_BOUND( '', #137, .T. );
#89 = FACE_BOUND( '', #138, .T. );
#90 = FACE_BOUND( '', #139, .T. );
#91 = FACE_BOUND( '', #140, .T. );
#92 = FACE_OUTER_BOUND( '', #141, .T. );
#93 = PLANE( '', #142 );
#94 = SURFACE_STYLE_USAGE( .BOTH., #143 );
#95 = FACE_OUTER_BOUND( '', #144, .T. );
#96 = FACE_OUTER_BOUND( '', #145, .T. );
#97 = CYLINDRICAL_SURFACE( '', #146, 7.00000000000000 );
#98 = SURFACE_STYLE_USAGE( .BOTH., #147 );
#99 = FACE_OUTER_BOUND( '', #148, .T. );
#100 = PLANE( '', #149 );
#101 = SURFACE_STYLE_USAGE( .BOTH., #150 );
#102 = FACE_BOUND( '', #151, .T. );
#103 = FACE_BOUND( '', #152, .T. );
#104 = FACE_BOUND( '', #153, .T. );
#105 = FACE_BOUND( '', #154, .T. );
#106 = FACE_OUTER_BOUND( '', #155, .T. );
#107 = PLANE( '', #156 );
#108 = SURFACE_STYLE_USAGE( .BOTH., #157 );
#109 = FACE_OUTER_BOUND( '', #158, .T. );
#110 = FACE_OUTER_BOUND( '', #159, .T. );
#111 = CYLINDRICAL_SURFACE( '', #160, 15.0000000000000 );
#112 = PRODUCT_CONTEXT( '', #20, 'mechanical' );
#113 = PRODUCT_DEFINITION_FORMATION_WITH_SPECIFIED_SOURCE( ' ', 'NONE', #53, .NOT_KNOWN. );
#114 = CLOSED_SHELL( '', ( #34, #44, #42, #50, #48, #36, #38, #46, #52, #40 ) );
#115 = CARTESIAN_POINT( '', ( 0.000000000000000, 0.000000000000000, 0.000000000000000 ) );
#116 = DIRECTION( '', ( 0.000000000000000, 0.000000000000000, 1.00000000000000 ) );
#117 = DIRECTION( '', ( 1.00000000000000, 0.000000000000000, 0.000000000000000 ) );
#118 =  ( LENGTH_UNIT(  )NAMED_UNIT( #62 )SI_UNIT( .MILLI., .METRE. ) );
#119 = SURFACE_SIDE_STYLE( '', ( #162 ) );
#120 = EDGE_LOOP( '', ( #163 ) );
#121 = EDGE_LOOP( '', ( #164 ) );
#122 = AXIS2_PLACEMENT_3D( '', #165, #166, #167 );
#123 = SURFACE_SIDE_STYLE( '', ( #168 ) );
#124 = EDGE_LOOP( '', ( #169, #170, #171, #172 ) );
#125 = AXIS2_PLACEMENT_3D( '', #173, #174, #175 );
#126 = SURFACE_SIDE_STYLE( '', ( #176 ) );
#127 = EDGE_LOOP( '', ( #177, #178, #179, #180 ) );
#128 = AXIS2_PLACEMENT_3D( '', #181, #182, #183 );
#129 = SURFACE_SIDE_STYLE( '', ( #184 ) );
#130 = EDGE_LOOP( '', ( #185 ) );
#131 = EDGE_LOOP( '', ( #186 ) );
#132 = AXIS2_PLACEMENT_3D( '', #187, #188, #189 );
#133 = SURFACE_SIDE_STYLE( '', ( #190 ) );
#134 = EDGE_LOOP( '', ( #191, #192, #193, #194 ) );
#135 = AXIS2_PLACEMENT_3D( '', #195, #196, #197 );
#136 = SURFACE_SIDE_STYLE( '', ( #198 ) );
#137 = EDGE_LOOP( '', ( #199 ) );
#138 = EDGE_LOOP( '', ( #200 ) );
#139 = EDGE_LOOP( '', ( #201 ) );
#140 = EDGE_LOOP( '', ( #202 ) );
#141 = EDGE_LOOP( '', ( #203, #204, #205, #206 ) );
#142 = AXIS2_PLACEMENT_3D( '', #207, #208, #209 );
#143 = SURFACE_SIDE_STYLE( '', ( #210 ) );
#144 = EDGE_LOOP( '', ( #211 ) );
#145 = EDGE_LOOP( '', ( #212 ) );
#146 = AXIS2_PLACEMENT_3D( '', #213, #214, #215 );
#147 = SURFACE_SIDE_STYLE( '', ( #216 ) );
#148 = EDGE_LOOP( '', ( #217, #218, #219, #220 ) );
#149 = AXIS2_PLACEMENT_3D( '', #221, #222, #223 );
#150 = SURFACE_SIDE_STYLE( '', ( #224 ) );
#151 = EDGE_LOOP( '', ( #225 ) );
#152 = EDGE_LOOP( '', ( #226 ) );
#153 = EDGE_LOOP( '', ( #227 ) );
#154 = EDGE_LOOP( '', ( #228 ) );
#155 = EDGE_LOOP( '', ( #229, #230, #231, #232 ) );
#156 = AXIS2_PLACEMENT_3D( '', #233, #234, #235 );
#157 = SURFACE_SIDE_STYLE( '', ( #236 ) );
#158 = EDGE_LOOP( '', ( #237 ) );
#159 = EDGE_LOOP( '', ( #238 ) );
#160 = AXIS2_PLACEMENT_3D( '', #239, #240, #241 );
#162 = SURFACE_STYLE_FILL_AREA( #242 );
#163 = ORIENTED_EDGE( '', *, *, #243, .F. );
#164 = ORIENTED_EDGE( '', *, *, #244, .F. );
#165 = CARTESIAN_POINT( '', ( -112.000000000000, 4.50000000000000, 76.0000000000000 ) );
#166 = DIRECTION( '', ( -0.000000000000000, -0.000000000000000, 1.00000000000000 ) );
#167 = DIRECTION( '', ( 0.000000000000000, -1.00000000000000, 0.000000000000000 ) );
#168 = SURFACE_STYLE_FILL_AREA( #245 );
#169 = ORIENTED_EDGE( '', *, *, #246, .T. );
#170 = ORIENTED_EDGE( '', *, *, #247, .F. );
#171 = ORIENTED_EDGE( '', *, *, #248, .F. );
#172 = ORIENTED_EDGE( '', *, *, #249, .T. );
#173 = CARTESIAN_POINT( '', ( 173.000000000000, 21.5000000000000, 76.0000000000000 ) );
#174 = DIRECTION( '', ( -1.60436853269532E-016, -1.00000000000000, 0.000000000000000 ) );
#175 = DIRECTION( '', ( 1.00000000000000, -1.60436853269532E-016, 0.000000000000000 ) );
#176 = SURFACE_STYLE_FILL_AREA( #250 );
#177 = ORIENTED_EDGE( '', *, *, #251, .T. );
#178 = ORIENTED_EDGE( '', *, *, #252, .F. );
#179 = ORIENTED_EDGE( '', *, *, #253, .F. );
#180 = ORIENTED_EDGE( '', *, *, #247, .T. );
#181 = CARTESIAN_POINT( '', ( -173.000000000000, 21.5000000000000, 76.0000000000000 ) );
#182 = DIRECTION( '', ( 1.00000000000000, 0.000000000000000, 0.000000000000000 ) );
#183 = DIRECTION( '', ( 0.000000000000000, 0.000000000000000, -1.00000000000000 ) );
#184 = SURFACE_STYLE_FILL_AREA( #254 );
#185 = ORIENTED_EDGE( '', *, *, #255, .F. );
#186 = ORIENTED_EDGE( '', *, *, #256, .F. );
#187 = CARTESIAN_POINT( '', ( -147.000000000000, 4.50000000000000, 76.0000000000000 ) );
#188 = DIRECTION( '', ( -0.000000000000000, -0.000000000000000, 1.00000000000000 ) );
#189 = DIRECTION( '', ( 0.000000000000000, -1.00000000000000, 0.000000000000000 ) );
#190 = SURFACE_STYLE_FILL_AREA( #257 );
#191 = ORIENTED_EDGE( '', *, *, #258, .T. );
#192 = ORIENTED_EDGE( '', *, *, #249, .F. );
#193 = ORIENTED_EDGE( '', *, *, #259, .F. );
#194 = ORIENTED_EDGE( '', *, *, #260, .T. );
#195 = CARTESIAN_POINT( '', ( 173.000000000000, -21.5000000000000, 76.0000000000000 ) );
#196 = DIRECTION( '', ( -1.00000000000000, 0.000000000000000, 0.000000000000000 ) );
#197 = DIRECTION( '', ( 0.000000000000000, 0.000000000000000, 1.00000000000000 ) );
#198 = SURFACE_STYLE_FILL_AREA( #261 );
#199 = ORIENTED_EDGE( '', *, *, #256, .T. );
#200 = ORIENTED_EDGE( '', *, *, #262, .T. );
#201 = ORIENTED_EDGE( '', *, *, #263, .T. );
#202 = ORIENTED_EDGE( '', *, *, #244, .T. );
#203 = ORIENTED_EDGE( '', *, *, #246, .F. );
#204 = ORIENTED_EDGE( '', *, *, #258, .F. );
#205 = ORIENTED_EDGE( '', *, *, #264, .F. );
#206 = ORIENTED_EDGE( '', *, *, #251, .F. );
#207 = CARTESIAN_POINT( '', ( -173.000000000000, 21.5000000000000, 0.000000000000000 ) );
#208 = DIRECTION( '', ( 0.000000000000000, 0.000000000000000, 1.00000000000000 ) );
#209 = DIRECTION( '', ( 1.00000000000000, 0.000000000000000, 0.000000000000000 ) );
#210 = SURFACE_STYLE_FILL_AREA( #265 );
#211 = ORIENTED_EDGE( '', *, *, #266, .F. );
#212 = ORIENTED_EDGE( '', *, *, #263, .F. );
#213 = CARTESIAN_POINT( '', ( 112.000000000000, 4.50000000000006, 76.0000000000000 ) );
#214 = DIRECTION( '', ( -0.000000000000000, -0.000000000000000, 1.00000000000000 ) );
#215 = DIRECTION( '', ( 0.000000000000000, -1.00000000000000, 0.000000000000000 ) );
#216 = SURFACE_STYLE_FILL_AREA( #267 );
#217 = ORIENTED_EDGE( '', *, *, #264, .T. );
#218 = ORIENTED_EDGE( '', *, *, #260, .F. );
#219 = ORIENTED_EDGE( '', *, *, #268, .F. );
#220 = ORIENTED_EDGE( '', *, *, #252, .T. );
#221 = CARTESIAN_POINT( '', ( -173.000000000000, -21.5000000000000, 76.0000000000000 ) );
#222 = DIRECTION( '', ( 6.01638199760742E-017, 1.00000000000000, 0.000000000000000 ) );
#223 = DIRECTION( '', ( -1.00000000000000, 6.01638199760742E-017, 0.000000000000000 ) );
#224 = SURFACE_STYLE_FILL_AREA( #269 );
#225 = ORIENTED_EDGE( '', *, *, #255, .T. );
#226 = ORIENTED_EDGE( '', *, *, #270, .T. );
#227 = ORIENTED_EDGE( '', *, *, #266, .T. );
#228 = ORIENTED_EDGE( '', *, *, #243, .T. );
#229 = ORIENTED_EDGE( '', *, *, #248, .T. );
#230 = ORIENTED_EDGE( '', *, *, #253, .T. );
#231 = ORIENTED_EDGE( '', *, *, #268, .T. );
#232 = ORIENTED_EDGE( '', *, *, #259, .T. );
#233 = CARTESIAN_POINT( '', ( -173.000000000000, 21.5000000000000, 76.0000000000000 ) );
#234 = DIRECTION( '', ( 0.000000000000000, 0.000000000000000, 1.00000000000000 ) );
#235 = DIRECTION( '', ( 1.00000000000000, 0.000000000000000, 0.000000000000000 ) );
#236 = SURFACE_STYLE_FILL_AREA( #271 );
#237 = ORIENTED_EDGE( '', *, *, #270, .F. );
#238 = ORIENTED_EDGE( '', *, *, #262, .F. );
#239 = CARTESIAN_POINT( '', ( 147.000000000000, 4.50000000000000, 76.0000000000000 ) );
#240 = DIRECTION( '', ( -0.000000000000000, -0.000000000000000, 1.00000000000000 ) );
#241 = DIRECTION( '', ( 0.000000000000000, -1.00000000000000, 0.000000000000000 ) );
#242 = FILL_AREA_STYLE( '', ( #272 ) );
#243 = EDGE_CURVE( '', #273, #273, #274, .T. );
#244 = EDGE_CURVE( '', #275, #275, #276, .T. );
#245 = FILL_AREA_STYLE( '', ( #277 ) );
#246 = EDGE_CURVE( '', #278, #279, #280, .T. );
#247 = EDGE_CURVE( '', #281, #279, #282, .T. );
#248 = EDGE_CURVE( '', #283, #281, #284, .T. );
#249 = EDGE_CURVE( '', #283, #278, #285, .T. );
#250 = FILL_AREA_STYLE( '', ( #286 ) );
#251 = EDGE_CURVE( '', #279, #287, #288, .T. );
#252 = EDGE_CURVE( '', #289, #287, #290, .T. );
#253 = EDGE_CURVE( '', #281, #289, #291, .T. );
#254 = FILL_AREA_STYLE( '', ( #292 ) );
#255 = EDGE_CURVE( '', #293, #293, #294, .T. );
#256 = EDGE_CURVE( '', #295, #295, #296, .T. );
#257 = FILL_AREA_STYLE( '', ( #297 ) );
#258 = EDGE_CURVE( '', #298, #278, #299, .T. );
#259 = EDGE_CURVE( '', #300, #283, #301, .T. );
#260 = EDGE_CURVE( '', #300, #298, #302, .T. );
#261 = FILL_AREA_STYLE( '', ( #303 ) );
#262 = EDGE_CURVE( '', #304, #304, #305, .T. );
#263 = EDGE_CURVE( '', #306, #306, #307, .T. );
#264 = EDGE_CURVE( '', #287, #298, #308, .T. );
#265 = FILL_AREA_STYLE( '', ( #309 ) );
#266 = EDGE_CURVE( '', #310, #310, #311, .T. );
#267 = FILL_AREA_STYLE( '', ( #312 ) );
#268 = EDGE_CURVE( '', #289, #300, #313, .T. );
#269 = FILL_AREA_STYLE( '', ( #314 ) );
#270 = EDGE_CURVE( '', #315, #315, #316, .T. );
#271 = FILL_AREA_STYLE( '', ( #317 ) );
#272 = FILL_AREA_STYLE_COLOUR( '', #318 );
#273 = VERTEX_POINT( '', #319 );
#274 = CIRCLE( '', #320, 7.00000000000000 );
#275 = VERTEX_POINT( '', #321 );
#276 = CIRCLE( '', #322, 7.00000000000000 );
#277 = FILL_AREA_STYLE_COLOUR( '', #323 );
#278 = VERTEX_POINT( '', #324 );
#279 = VERTEX_POINT( '', #325 );
#280 = LINE( '', #326, #327 );
#281 = VERTEX_POINT( '', #328 );
#282 = LINE( '', #329, #330 );
#283 = VERTEX_POINT( '', #331 );
#284 = LINE( '', #332, #333 );
#285 = LINE( '', #334, #335 );
#286 = FILL_AREA_STYLE_COLOUR( '', #336 );
#287 = VERTEX_POINT( '', #337 );
#288 = LINE( '', #338, #339 );
#289 = VERTEX_POINT( '', #340 );
#290 = LINE( '', #341, #342 );
#291 = LINE( '', #343, #344 );
#292 = FILL_AREA_STYLE_COLOUR( '', #345 );
#293 = VERTEX_POINT( '', #346 );
#294 = CIRCLE( '', #347, 15.0000000000000 );
#295 = VERTEX_POINT( '', #348 );
#296 = CIRCLE( '', #349, 15.0000000000000 );
#297 = FILL_AREA_STYLE_COLOUR( '', #350 );
#298 = VERTEX_POINT( '', #351 );
#299 = LINE( '', #352, #353 );
#300 = VERTEX_POINT( '', #354 );
#301 = LINE( '', #355, #356 );
#302 = LINE( '', #357, #358 );
#303 = FILL_AREA_STYLE_COLOUR( '', #359 );
#304 = VERTEX_POINT( '', #360 );
#305 = CIRCLE( '', #361, 15.0000000000000 );
#306 = VERTEX_POINT( '', #362 );
#307 = CIRCLE( '', #363, 7.00000000000000 );
#308 = LINE( '', #364, #365 );
#309 = FILL_AREA_STYLE_COLOUR( '', #366 );
#310 = VERTEX_POINT( '', #367 );
#311 = CIRCLE( '', #368, 7.00000000000000 );
#312 = FILL_AREA_STYLE_COLOUR( '', #369 );
#313 = LINE( '', #370, #371 );
#314 = FILL_AREA_STYLE_COLOUR( '', #372 );
#315 = VERTEX_POINT( '', #373 );
#316 = CIRCLE( '', #374, 15.0000000000000 );
#317 = FILL_AREA_STYLE_COLOUR( '', #375 );
#318 = COLOUR_RGB( '', 0.752941191196442, 0.752941191196442, 0.752941191196442 );
#319 = CARTESIAN_POINT( '', ( -112.000000000000, -2.50000000000000, 76.0000000000000 ) );
#320 = AXIS2_PLACEMENT_3D( '', #376, #377, #378 );
#321 = CARTESIAN_POINT( '', ( -105.000000000000, 4.50000000000000, 0.000000000000000 ) );
#322 = AXIS2_PLACEMENT_3D( '', #379, #380, #381 );
#323 = COLOUR_RGB( '', 0.752941191196442, 0.752941191196442, 0.752941191196442 );
#324 = CARTESIAN_POINT( '', ( 173.000000000000, 21.5000000000000, 0.000000000000000 ) );
#325 = CARTESIAN_POINT( '', ( -173.000000000000, 21.5000000000000, 0.000000000000000 ) );
#326 = CARTESIAN_POINT( '', ( 173.000000000000, 21.5000000000000, 0.000000000000000 ) );
#327 = VECTOR( '', #382, 1000.00000000000 );
#328 = CARTESIAN_POINT( '', ( -173.000000000000, 21.5000000000000, 76.0000000000000 ) );
#329 = CARTESIAN_POINT( '', ( -173.000000000000, 21.5000000000000, 76.0000000000000 ) );
#330 = VECTOR( '', #383, 1000.00000000000 );
#331 = CARTESIAN_POINT( '', ( 173.000000000000, 21.5000000000000, 76.0000000000000 ) );
#332 = CARTESIAN_POINT( '', ( 173.000000000000, 21.5000000000000, 76.0000000000000 ) );
#333 = VECTOR( '', #384, 1000.00000000000 );
#334 = CARTESIAN_POINT( '', ( 173.000000000000, 21.5000000000000, 76.0000000000000 ) );
#335 = VECTOR( '', #385, 1000.00000000000 );
#336 = COLOUR_RGB( '', 0.752941191196442, 0.752941191196442, 0.752941191196442 );
#337 = CARTESIAN_POINT( '', ( -173.000000000000, -21.5000000000000, 0.000000000000000 ) );
#338 = CARTESIAN_POINT( '', ( -173.000000000000, 21.5000000000000, 0.000000000000000 ) );
#339 = VECTOR( '', #386, 1000.00000000000 );
#340 = CARTESIAN_POINT( '', ( -173.000000000000, -21.5000000000000, 76.0000000000000 ) );
#341 = CARTESIAN_POINT( '', ( -173.000000000000, -21.5000000000000, 76.0000000000000 ) );
#342 = VECTOR( '', #387, 1000.00000000000 );
#343 = CARTESIAN_POINT( '', ( -173.000000000000, 21.5000000000000, 76.0000000000000 ) );
#344 = VECTOR( '', #388, 1000.00000000000 );
#345 = COLOUR_RGB( '', 0.752941191196442, 0.752941191196442, 0.752941191196442 );
#346 = CARTESIAN_POINT( '', ( -147.000000000000, -10.5000000000000, 76.0000000000000 ) );
#347 = AXIS2_PLACEMENT_3D( '', #389, #390, #391 );
#348 = CARTESIAN_POINT( '', ( -132.000000000000, 4.50000000000000, 0.000000000000000 ) );
#349 = AXIS2_PLACEMENT_3D( '', #392, #393, #394 );
#350 = COLOUR_RGB( '', 0.752941191196442, 0.752941191196442, 0.752941191196442 );
#351 = CARTESIAN_POINT( '', ( 173.000000000000, -21.5000000000000, 0.000000000000000 ) );
#352 = CARTESIAN_POINT( '', ( 173.000000000000, -21.5000000000000, 0.000000000000000 ) );
#353 = VECTOR( '', #395, 1000.00000000000 );
#354 = CARTESIAN_POINT( '', ( 173.000000000000, -21.5000000000000, 76.0000000000000 ) );
#355 = CARTESIAN_POINT( '', ( 173.000000000000, -21.5000000000000, 76.0000000000000 ) );
#356 = VECTOR( '', #396, 1000.00000000000 );
#357 = CARTESIAN_POINT( '', ( 173.000000000000, -21.5000000000000, 76.0000000000000 ) );
#358 = VECTOR( '', #397, 1000.00000000000 );
#359 = COLOUR_RGB( '', 0.752941191196442, 0.752941191196442, 0.752941191196442 );
#360 = CARTESIAN_POINT( '', ( 162.000000000000, 4.50000000000000, 0.000000000000000 ) );
#361 = AXIS2_PLACEMENT_3D( '', #398, #399, #400 );
#362 = CARTESIAN_POINT( '', ( 119.000000000000, 4.50000000000006, 0.000000000000000 ) );
#363 = AXIS2_PLACEMENT_3D( '', #401, #402, #403 );
#364 = CARTESIAN_POINT( '', ( -173.000000000000, -21.5000000000000, 0.000000000000000 ) );
#365 = VECTOR( '', #404, 1000.00000000000 );
#366 = COLOUR_RGB( '', 0.752941191196442, 0.752941191196442, 0.752941191196442 );
#367 = CARTESIAN_POINT( '', ( 112.000000000000, -2.49999999999994, 76.0000000000000 ) );
#368 = AXIS2_PLACEMENT_3D( '', #405, #406, #407 );
#369 = COLOUR_RGB( '', 0.752941191196442, 0.752941191196442, 0.752941191196442 );
#370 = CARTESIAN_POINT( '', ( -173.000000000000, -21.5000000000000, 76.0000000000000 ) );
#371 = VECTOR( '', #408, 1000.00000000000 );
#372 = COLOUR_RGB( '', 0.752941191196442, 0.752941191196442, 0.752941191196442 );
#373 = CARTESIAN_POINT( '', ( 147.000000000000, -10.5000000000000, 76.0000000000000 ) );
#374 = AXIS2_PLACEMENT_3D( '', #409, #410, #411 );
#375 = COLOUR_RGB( '', 0.752941191196442, 0.752941191196442, 0.752941191196442 );
#376 = CARTESIAN_POINT( '', ( -112.000000000000, 4.50000000000000, 76.0000000000000 ) );
#377 = DIRECTION( '', ( 0.000000000000000, 0.000000000000000, -1.00000000000000 ) );
#378 = DIRECTION( '', ( 0.000000000000000, -1.00000000000000, 0.000000000000000 ) );
#379 = CARTESIAN_POINT( '', ( -112.000000000000, 4.50000000000000, 0.000000000000000 ) );
#380 = DIRECTION( '', ( 0.000000000000000, 0.000000000000000, 1.00000000000000 ) );
#381 = DIRECTION( '', ( 1.00000000000000, 0.000000000000000, 0.000000000000000 ) );
#382 = DIRECTION( '', ( -1.00000000000000, 1.60436853269532E-016, 0.000000000000000 ) );
#383 = DIRECTION( '', ( 0.000000000000000, 0.000000000000000, -1.00000000000000 ) );
#384 = DIRECTION( '', ( -1.00000000000000, 1.60436853269532E-016, 0.000000000000000 ) );
#385 = DIRECTION( '', ( 0.000000000000000, 0.000000000000000, -1.00000000000000 ) );
#386 = DIRECTION( '', ( 0.000000000000000, -1.00000000000000, 0.000000000000000 ) );
#387 = DIRECTION( '', ( 0.000000000000000, 0.000000000000000, -1.00000000000000 ) );
#388 = DIRECTION( '', ( 0.000000000000000, -1.00000000000000, 0.000000000000000 ) );
#389 = CARTESIAN_POINT( '', ( -147.000000000000, 4.50000000000000, 76.0000000000000 ) );
#390 = DIRECTION( '', ( 0.000000000000000, 0.000000000000000, -1.00000000000000 ) );
#391 = DIRECTION( '', ( 0.000000000000000, -1.00000000000000, 0.000000000000000 ) );
#392 = CARTESIAN_POINT( '', ( -147.000000000000, 4.50000000000000, 0.000000000000000 ) );
#393 = DIRECTION( '', ( 0.000000000000000, 0.000000000000000, 1.00000000000000 ) );
#394 = DIRECTION( '', ( 1.00000000000000, 0.000000000000000, 0.000000000000000 ) );
#395 = DIRECTION( '', ( 0.000000000000000, 1.00000000000000, 0.000000000000000 ) );
#396 = DIRECTION( '', ( 0.000000000000000, 1.00000000000000, 0.000000000000000 ) );
#397 = DIRECTION( '', ( 0.000000000000000, 0.000000000000000, -1.00000000000000 ) );
#398 = CARTESIAN_POINT( '', ( 147.000000000000, 4.50000000000000, 0.000000000000000 ) );
#399 = DIRECTION( '', ( 0.000000000000000, 0.000000000000000, 1.00000000000000 ) );
#400 = DIRECTION( '', ( 1.00000000000000, 0.000000000000000, 0.000000000000000 ) );
#401 = CARTESIAN_POINT( '', ( 112.000000000000, 4.50000000000006, 0.000000000000000 ) );
#402 = DIRECTION( '', ( 0.000000000000000, 0.000000000000000, 1.00000000000000 ) );
#403 = DIRECTION( '', ( 1.00000000000000, 0.000000000000000, 0.000000000000000 ) );
#404 = DIRECTION( '', ( 1.00000000000000, -6.01638199760742E-017, 0.000000000000000 ) );
#405 = CARTESIAN_POINT( '', ( 112.000000000000, 4.50000000000006, 76.0000000000000 ) );
#406 = DIRECTION( '', ( 0.000000000000000, 0.000000000000000, -1.00000000000000 ) );
#407 = DIRECTION( '', ( 0.000000000000000, -1.00000000000000, 0.000000000000000 ) );
#408 = DIRECTION( '', ( 1.00000000000000, -6.01638199760742E-017, 0.000000000000000 ) );
#409 = CARTESIAN_POINT( '', ( 147.000000000000, 4.50000000000000, 76.0000000000000 ) );
#410 = DIRECTION( '', ( 0.000000000000000, 0.000000000000000, -1.00000000000000 ) );
#411 = DIRECTION( '', ( 0.000000000000000, -1.00000000000000, 0.000000000000000 ) );
ENDSEC;
END-ISO-10303-21;
