ISO-10303-21;
HEADER;
FILE_DESCRIPTION( ( 'Unknown' ), '1' );
FILE_NAME( 'M:/Piezas_3D/Placas_Par/G2/OS_G2_346x346x096_.stp', 'Unknown', ( 'Unknown' ), ( 'Unknown' ), 'PSStep 16.0.42', 'Unknown', '  ' );
FILE_SCHEMA( ( 'AUTOMOTIVE_DESIGN { 1 0 10303 214 1 1 1 1 }' ) );
ENDSEC;
DATA;
#1 = MECHANICAL_DESIGN_GEOMETRIC_PRESENTATION_REPRESENTATION( ' ', ( #10, #11, #12, #13, #14, #15, #16, #17, #18, #19 ), #6 );
#2 = PRODUCT_DEFINITION_CONTEXT( '', #20, 'design' );
#3 = APPLICATION_PROTOCOL_DEFINITION( 'international standard', 'automotive_design', 2001, #20 );
#4 = PRODUCT_CATEGORY_RELATIONSHIP( 'NONE', 'NONE', #21, #22 );
#5 = SHAPE_DEFINITION_REPRESENTATION( #23, #24 );
#6 =  ( GEOMETRIC_REPRESENTATION_CONTEXT( 3 )GLOBAL_UNCERTAINTY_ASSIGNED_CONTEXT( ( #27 ) )GLOBAL_UNIT_ASSIGNED_CONTEXT( ( #29, #30, #31 ) )REPRESENTATION_CONTEXT( 'NONE', 'WORKSPACE' ) );
#10 = STYLED_ITEM( '', ( #33 ), #34 );
#11 = STYLED_ITEM( '', ( #35 ), #36 );
#12 = STYLED_ITEM( '', ( #37 ), #38 );
#13 = STYLED_ITEM( '', ( #39 ), #40 );
#14 = STYLED_ITEM( '', ( #41 ), #42 );
#15 = STYLED_ITEM( '', ( #43 ), #44 );
#16 = STYLED_ITEM( '', ( #45 ), #46 );
#17 = STYLED_ITEM( '', ( #47 ), #48 );
#18 = STYLED_ITEM( '', ( #49 ), #50 );
#19 = STYLED_ITEM( '', ( #51 ), #52 );
#20 = APPLICATION_CONTEXT( 'core data for automotive mechanical design processes' );
#21 = PRODUCT_CATEGORY( 'part', 'NONE' );
#22 = PRODUCT_RELATED_PRODUCT_CATEGORY( 'detail', ' ', ( #53 ) );
#23 = PRODUCT_DEFINITION_SHAPE( 'NONE', 'NONE', #54 );
#24 = ADVANCED_BREP_SHAPE_REPRESENTATION( '1', ( #55, #56 ), #6 );
#27 = UNCERTAINTY_MEASURE_WITH_UNIT( LENGTH_MEASURE( 0.00100000000000000 ), #29, '', '' );
#29 =  ( CONVERSION_BASED_UNIT( 'MILLIMETRE', #59 )LENGTH_UNIT(  )NAMED_UNIT( #62 ) );
#30 =  ( NAMED_UNIT( #64 )PLANE_ANGLE_UNIT(  )SI_UNIT( $, .RADIAN. ) );
#31 =  ( NAMED_UNIT( #64 )SI_UNIT( $, .STERADIAN. )SOLID_ANGLE_UNIT(  ) );
#33 = PRESENTATION_STYLE_ASSIGNMENT( ( #70 ) );
#34 = ADVANCED_FACE( '', ( #71, #72 ), #73, .F. );
#35 = PRESENTATION_STYLE_ASSIGNMENT( ( #74 ) );
#36 = ADVANCED_FACE( '', ( #75 ), #76, .F. );
#37 = PRESENTATION_STYLE_ASSIGNMENT( ( #77 ) );
#38 = ADVANCED_FACE( '', ( #78, #79 ), #80, .F. );
#39 = PRESENTATION_STYLE_ASSIGNMENT( ( #81 ) );
#40 = ADVANCED_FACE( '', ( #82 ), #83, .F. );
#41 = PRESENTATION_STYLE_ASSIGNMENT( ( #84 ) );
#42 = ADVANCED_FACE( '', ( #85, #86 ), #87, .F. );
#43 = PRESENTATION_STYLE_ASSIGNMENT( ( #88 ) );
#44 = ADVANCED_FACE( '', ( #89 ), #90, .F. );
#45 = PRESENTATION_STYLE_ASSIGNMENT( ( #91 ) );
#46 = ADVANCED_FACE( '', ( #92, #93, #94, #95, #96 ), #97, .F. );
#47 = PRESENTATION_STYLE_ASSIGNMENT( ( #98 ) );
#48 = ADVANCED_FACE( '', ( #99 ), #100, .F. );
#49 = PRESENTATION_STYLE_ASSIGNMENT( ( #101 ) );
#50 = ADVANCED_FACE( '', ( #102, #103 ), #104, .F. );
#51 = PRESENTATION_STYLE_ASSIGNMENT( ( #105 ) );
#52 = ADVANCED_FACE( '', ( #106, #107, #108, #109, #110 ), #111, .T. );
#53 = PRODUCT( '1', '1', 'PART-1-DESC', ( #112 ) );
#54 = PRODUCT_DEFINITION( 'NONE', 'NONE', #113, #2 );
#55 = MANIFOLD_SOLID_BREP( '1', #114 );
#56 = AXIS2_PLACEMENT_3D( '', #115, #116, #117 );
#59 = LENGTH_MEASURE_WITH_UNIT( LENGTH_MEASURE( 1.00000000000000 ), #118 );
#62 = DIMENSIONAL_EXPONENTS( 1.00000000000000, 0.000000000000000, 0.000000000000000, 0.000000000000000, 0.000000000000000, 0.000000000000000, 0.000000000000000 );
#64 = DIMENSIONAL_EXPONENTS( 0.000000000000000, 0.000000000000000, 0.000000000000000, 0.000000000000000, 0.000000000000000, 0.000000000000000, 0.000000000000000 );
#70 = SURFACE_STYLE_USAGE( .BOTH., #119 );
#71 = FACE_OUTER_BOUND( '', #120, .T. );
#72 = FACE_OUTER_BOUND( '', #121, .T. );
#73 = CYLINDRICAL_SURFACE( '', #122, 15.0000000000000 );
#74 = SURFACE_STYLE_USAGE( .BOTH., #123 );
#75 = FACE_OUTER_BOUND( '', #124, .T. );
#76 = PLANE( '', #125 );
#77 = SURFACE_STYLE_USAGE( .BOTH., #126 );
#78 = FACE_OUTER_BOUND( '', #127, .T. );
#79 = FACE_OUTER_BOUND( '', #128, .T. );
#80 = CYLINDRICAL_SURFACE( '', #129, 15.0000000000000 );
#81 = SURFACE_STYLE_USAGE( .BOTH., #130 );
#82 = FACE_OUTER_BOUND( '', #131, .T. );
#83 = PLANE( '', #132 );
#84 = SURFACE_STYLE_USAGE( .BOTH., #133 );
#85 = FACE_OUTER_BOUND( '', #134, .T. );
#86 = FACE_OUTER_BOUND( '', #135, .T. );
#87 = CYLINDRICAL_SURFACE( '', #136, 7.00000000000000 );
#88 = SURFACE_STYLE_USAGE( .BOTH., #137 );
#89 = FACE_OUTER_BOUND( '', #138, .T. );
#90 = PLANE( '', #139 );
#91 = SURFACE_STYLE_USAGE( .BOTH., #140 );
#92 = FACE_BOUND( '', #141, .T. );
#93 = FACE_BOUND( '', #142, .T. );
#94 = FACE_BOUND( '', #143, .T. );
#95 = FACE_BOUND( '', #144, .T. );
#96 = FACE_OUTER_BOUND( '', #145, .T. );
#97 = PLANE( '', #146 );
#98 = SURFACE_STYLE_USAGE( .BOTH., #147 );
#99 = FACE_OUTER_BOUND( '', #148, .T. );
#100 = PLANE( '', #149 );
#101 = SURFACE_STYLE_USAGE( .BOTH., #150 );
#102 = FACE_OUTER_BOUND( '', #151, .T. );
#103 = FACE_OUTER_BOUND( '', #152, .T. );
#104 = CYLINDRICAL_SURFACE( '', #153, 7.00000000000000 );
#105 = SURFACE_STYLE_USAGE( .BOTH., #154 );
#106 = FACE_BOUND( '', #155, .T. );
#107 = FACE_BOUND( '', #156, .T. );
#108 = FACE_BOUND( '', #157, .T. );
#109 = FACE_BOUND( '', #158, .T. );
#110 = FACE_OUTER_BOUND( '', #159, .T. );
#111 = PLANE( '', #160 );
#112 = PRODUCT_CONTEXT( '', #20, 'mechanical' );
#113 = PRODUCT_DEFINITION_FORMATION_WITH_SPECIFIED_SOURCE( ' ', 'NONE', #53, .NOT_KNOWN. );
#114 = CLOSED_SHELL( '', ( #50, #46, #40, #52, #48, #44, #36, #42, #34, #38 ) );
#115 = CARTESIAN_POINT( '', ( 0.000000000000000, 0.000000000000000, 0.000000000000000 ) );
#116 = DIRECTION( '', ( 0.000000000000000, 0.000000000000000, 1.00000000000000 ) );
#117 = DIRECTION( '', ( 1.00000000000000, 0.000000000000000, 0.000000000000000 ) );
#118 =  ( LENGTH_UNIT(  )NAMED_UNIT( #62 )SI_UNIT( .MILLI., .METRE. ) );
#119 = SURFACE_SIDE_STYLE( '', ( #162 ) );
#120 = EDGE_LOOP( '', ( #163 ) );
#121 = EDGE_LOOP( '', ( #164 ) );
#122 = AXIS2_PLACEMENT_3D( '', #165, #166, #167 );
#123 = SURFACE_SIDE_STYLE( '', ( #168 ) );
#124 = EDGE_LOOP( '', ( #169, #170, #171, #172 ) );
#125 = AXIS2_PLACEMENT_3D( '', #173, #174, #175 );
#126 = SURFACE_SIDE_STYLE( '', ( #176 ) );
#127 = EDGE_LOOP( '', ( #177 ) );
#128 = EDGE_LOOP( '', ( #178 ) );
#129 = AXIS2_PLACEMENT_3D( '', #179, #180, #181 );
#130 = SURFACE_SIDE_STYLE( '', ( #182 ) );
#131 = EDGE_LOOP( '', ( #183, #184, #185, #186 ) );
#132 = AXIS2_PLACEMENT_3D( '', #187, #188, #189 );
#133 = SURFACE_SIDE_STYLE( '', ( #190 ) );
#134 = EDGE_LOOP( '', ( #191 ) );
#135 = EDGE_LOOP( '', ( #192 ) );
#136 = AXIS2_PLACEMENT_3D( '', #193, #194, #195 );
#137 = SURFACE_SIDE_STYLE( '', ( #196 ) );
#138 = EDGE_LOOP( '', ( #197, #198, #199, #200 ) );
#139 = AXIS2_PLACEMENT_3D( '', #201, #202, #203 );
#140 = SURFACE_SIDE_STYLE( '', ( #204 ) );
#141 = EDGE_LOOP( '', ( #205 ) );
#142 = EDGE_LOOP( '', ( #206 ) );
#143 = EDGE_LOOP( '', ( #207 ) );
#144 = EDGE_LOOP( '', ( #208 ) );
#145 = EDGE_LOOP( '', ( #209, #210, #211, #212 ) );
#146 = AXIS2_PLACEMENT_3D( '', #213, #214, #215 );
#147 = SURFACE_SIDE_STYLE( '', ( #216 ) );
#148 = EDGE_LOOP( '', ( #217, #218, #219, #220 ) );
#149 = AXIS2_PLACEMENT_3D( '', #221, #222, #223 );
#150 = SURFACE_SIDE_STYLE( '', ( #224 ) );
#151 = EDGE_LOOP( '', ( #225 ) );
#152 = EDGE_LOOP( '', ( #226 ) );
#153 = AXIS2_PLACEMENT_3D( '', #227, #228, #229 );
#154 = SURFACE_SIDE_STYLE( '', ( #230 ) );
#155 = EDGE_LOOP( '', ( #231 ) );
#156 = EDGE_LOOP( '', ( #232 ) );
#157 = EDGE_LOOP( '', ( #233 ) );
#158 = EDGE_LOOP( '', ( #234 ) );
#159 = EDGE_LOOP( '', ( #235, #236, #237, #238 ) );
#160 = AXIS2_PLACEMENT_3D( '', #239, #240, #241 );
#162 = SURFACE_STYLE_FILL_AREA( #242 );
#163 = ORIENTED_EDGE( '', *, *, #243, .F. );
#164 = ORIENTED_EDGE( '', *, *, #244, .F. );
#165 = CARTESIAN_POINT( '', ( 147.000000000000, 4.50000000000000, 96.0000000000000 ) );
#166 = DIRECTION( '', ( -0.000000000000000, -0.000000000000000, 1.00000000000000 ) );
#167 = DIRECTION( '', ( 0.000000000000000, -1.00000000000000, 0.000000000000000 ) );
#168 = SURFACE_STYLE_FILL_AREA( #245 );
#169 = ORIENTED_EDGE( '', *, *, #246, .T. );
#170 = ORIENTED_EDGE( '', *, *, #247, .F. );
#171 = ORIENTED_EDGE( '', *, *, #248, .F. );
#172 = ORIENTED_EDGE( '', *, *, #249, .T. );
#173 = CARTESIAN_POINT( '', ( -173.000000000000, 21.5000000000000, 96.0000000000000 ) );
#174 = DIRECTION( '', ( 1.00000000000000, 0.000000000000000, 0.000000000000000 ) );
#175 = DIRECTION( '', ( 0.000000000000000, 0.000000000000000, -1.00000000000000 ) );
#176 = SURFACE_STYLE_FILL_AREA( #250 );
#177 = ORIENTED_EDGE( '', *, *, #251, .F. );
#178 = ORIENTED_EDGE( '', *, *, #252, .F. );
#179 = CARTESIAN_POINT( '', ( -147.000000000000, 4.50000000000000, 96.0000000000000 ) );
#180 = DIRECTION( '', ( -0.000000000000000, -0.000000000000000, 1.00000000000000 ) );
#181 = DIRECTION( '', ( 0.000000000000000, -1.00000000000000, 0.000000000000000 ) );
#182 = SURFACE_STYLE_FILL_AREA( #253 );
#183 = ORIENTED_EDGE( '', *, *, #254, .T. );
#184 = ORIENTED_EDGE( '', *, *, #255, .F. );
#185 = ORIENTED_EDGE( '', *, *, #256, .F. );
#186 = ORIENTED_EDGE( '', *, *, #257, .T. );
#187 = CARTESIAN_POINT( '', ( 173.000000000000, -21.5000000000000, 96.0000000000000 ) );
#188 = DIRECTION( '', ( -1.00000000000000, 0.000000000000000, 0.000000000000000 ) );
#189 = DIRECTION( '', ( 0.000000000000000, 0.000000000000000, 1.00000000000000 ) );
#190 = SURFACE_STYLE_FILL_AREA( #258 );
#191 = ORIENTED_EDGE( '', *, *, #259, .F. );
#192 = ORIENTED_EDGE( '', *, *, #260, .F. );
#193 = CARTESIAN_POINT( '', ( 112.000000000000, 4.50000000000006, 96.0000000000000 ) );
#194 = DIRECTION( '', ( -0.000000000000000, -0.000000000000000, 1.00000000000000 ) );
#195 = DIRECTION( '', ( 0.000000000000000, -1.00000000000000, 0.000000000000000 ) );
#196 = SURFACE_STYLE_FILL_AREA( #261 );
#197 = ORIENTED_EDGE( '', *, *, #262, .T. );
#198 = ORIENTED_EDGE( '', *, *, #249, .F. );
#199 = ORIENTED_EDGE( '', *, *, #263, .F. );
#200 = ORIENTED_EDGE( '', *, *, #255, .T. );
#201 = CARTESIAN_POINT( '', ( 173.000000000000, 21.5000000000000, 96.0000000000000 ) );
#202 = DIRECTION( '', ( -1.60436853269532E-016, -1.00000000000000, 0.000000000000000 ) );
#203 = DIRECTION( '', ( 1.00000000000000, -1.60436853269532E-016, 0.000000000000000 ) );
#204 = SURFACE_STYLE_FILL_AREA( #264 );
#205 = ORIENTED_EDGE( '', *, *, #252, .T. );
#206 = ORIENTED_EDGE( '', *, *, #244, .T. );
#207 = ORIENTED_EDGE( '', *, *, #260, .T. );
#208 = ORIENTED_EDGE( '', *, *, #265, .T. );
#209 = ORIENTED_EDGE( '', *, *, #262, .F. );
#210 = ORIENTED_EDGE( '', *, *, #254, .F. );
#211 = ORIENTED_EDGE( '', *, *, #266, .F. );
#212 = ORIENTED_EDGE( '', *, *, #246, .F. );
#213 = CARTESIAN_POINT( '', ( -173.000000000000, 21.5000000000000, 0.000000000000000 ) );
#214 = DIRECTION( '', ( 0.000000000000000, 0.000000000000000, 1.00000000000000 ) );
#215 = DIRECTION( '', ( 1.00000000000000, 0.000000000000000, 0.000000000000000 ) );
#216 = SURFACE_STYLE_FILL_AREA( #267 );
#217 = ORIENTED_EDGE( '', *, *, #266, .T. );
#218 = ORIENTED_EDGE( '', *, *, #257, .F. );
#219 = ORIENTED_EDGE( '', *, *, #268, .F. );
#220 = ORIENTED_EDGE( '', *, *, #247, .T. );
#221 = CARTESIAN_POINT( '', ( -173.000000000000, -21.5000000000000, 96.0000000000000 ) );
#222 = DIRECTION( '', ( 6.01638199760742E-017, 1.00000000000000, 0.000000000000000 ) );
#223 = DIRECTION( '', ( -1.00000000000000, 6.01638199760742E-017, 0.000000000000000 ) );
#224 = SURFACE_STYLE_FILL_AREA( #269 );
#225 = ORIENTED_EDGE( '', *, *, #270, .F. );
#226 = ORIENTED_EDGE( '', *, *, #265, .F. );
#227 = CARTESIAN_POINT( '', ( -112.000000000000, 4.50000000000000, 96.0000000000000 ) );
#228 = DIRECTION( '', ( -0.000000000000000, -0.000000000000000, 1.00000000000000 ) );
#229 = DIRECTION( '', ( 0.000000000000000, -1.00000000000000, 0.000000000000000 ) );
#230 = SURFACE_STYLE_FILL_AREA( #271 );
#231 = ORIENTED_EDGE( '', *, *, #251, .T. );
#232 = ORIENTED_EDGE( '', *, *, #243, .T. );
#233 = ORIENTED_EDGE( '', *, *, #259, .T. );
#234 = ORIENTED_EDGE( '', *, *, #270, .T. );
#235 = ORIENTED_EDGE( '', *, *, #263, .T. );
#236 = ORIENTED_EDGE( '', *, *, #248, .T. );
#237 = ORIENTED_EDGE( '', *, *, #268, .T. );
#238 = ORIENTED_EDGE( '', *, *, #256, .T. );
#239 = CARTESIAN_POINT( '', ( -173.000000000000, 21.5000000000000, 96.0000000000000 ) );
#240 = DIRECTION( '', ( 0.000000000000000, 0.000000000000000, 1.00000000000000 ) );
#241 = DIRECTION( '', ( 1.00000000000000, 0.000000000000000, 0.000000000000000 ) );
#242 = FILL_AREA_STYLE( '', ( #272 ) );
#243 = EDGE_CURVE( '', #273, #273, #274, .T. );
#244 = EDGE_CURVE( '', #275, #275, #276, .T. );
#245 = FILL_AREA_STYLE( '', ( #277 ) );
#246 = EDGE_CURVE( '', #278, #279, #280, .T. );
#247 = EDGE_CURVE( '', #281, #279, #282, .T. );
#248 = EDGE_CURVE( '', #283, #281, #284, .T. );
#249 = EDGE_CURVE( '', #283, #278, #285, .T. );
#250 = FILL_AREA_STYLE( '', ( #286 ) );
#251 = EDGE_CURVE( '', #287, #287, #288, .T. );
#252 = EDGE_CURVE( '', #289, #289, #290, .T. );
#253 = FILL_AREA_STYLE( '', ( #291 ) );
#254 = EDGE_CURVE( '', #292, #293, #294, .T. );
#255 = EDGE_CURVE( '', #295, #293, #296, .T. );
#256 = EDGE_CURVE( '', #297, #295, #298, .T. );
#257 = EDGE_CURVE( '', #297, #292, #299, .T. );
#258 = FILL_AREA_STYLE( '', ( #300 ) );
#259 = EDGE_CURVE( '', #301, #301, #302, .T. );
#260 = EDGE_CURVE( '', #303, #303, #304, .T. );
#261 = FILL_AREA_STYLE( '', ( #305 ) );
#262 = EDGE_CURVE( '', #293, #278, #306, .T. );
#263 = EDGE_CURVE( '', #295, #283, #307, .T. );
#264 = FILL_AREA_STYLE( '', ( #308 ) );
#265 = EDGE_CURVE( '', #309, #309, #310, .T. );
#266 = EDGE_CURVE( '', #279, #292, #311, .T. );
#267 = FILL_AREA_STYLE( '', ( #312 ) );
#268 = EDGE_CURVE( '', #281, #297, #313, .T. );
#269 = FILL_AREA_STYLE( '', ( #314 ) );
#270 = EDGE_CURVE( '', #315, #315, #316, .T. );
#271 = FILL_AREA_STYLE( '', ( #317 ) );
#272 = FILL_AREA_STYLE_COLOUR( '', #318 );
#273 = VERTEX_POINT( '', #319 );
#274 = CIRCLE( '', #320, 15.0000000000000 );
#275 = VERTEX_POINT( '', #321 );
#276 = CIRCLE( '', #322, 15.0000000000000 );
#277 = FILL_AREA_STYLE_COLOUR( '', #323 );
#278 = VERTEX_POINT( '', #324 );
#279 = VERTEX_POINT( '', #325 );
#280 = LINE( '', #326, #327 );
#281 = VERTEX_POINT( '', #328 );
#282 = LINE( '', #329, #330 );
#283 = VERTEX_POINT( '', #331 );
#284 = LINE( '', #332, #333 );
#285 = LINE( '', #334, #335 );
#286 = FILL_AREA_STYLE_COLOUR( '', #336 );
#287 = VERTEX_POINT( '', #337 );
#288 = CIRCLE( '', #338, 15.0000000000000 );
#289 = VERTEX_POINT( '', #339 );
#290 = CIRCLE( '', #340, 15.0000000000000 );
#291 = FILL_AREA_STYLE_COLOUR( '', #341 );
#292 = VERTEX_POINT( '', #342 );
#293 = VERTEX_POINT( '', #343 );
#294 = LINE( '', #344, #345 );
#295 = VERTEX_POINT( '', #346 );
#296 = LINE( '', #347, #348 );
#297 = VERTEX_POINT( '', #349 );
#298 = LINE( '', #350, #351 );
#299 = LINE( '', #352, #353 );
#300 = FILL_AREA_STYLE_COLOUR( '', #354 );
#301 = VERTEX_POINT( '', #355 );
#302 = CIRCLE( '', #356, 7.00000000000000 );
#303 = VERTEX_POINT( '', #357 );
#304 = CIRCLE( '', #358, 7.00000000000000 );
#305 = FILL_AREA_STYLE_COLOUR( '', #359 );
#306 = LINE( '', #360, #361 );
#307 = LINE( '', #362, #363 );
#308 = FILL_AREA_STYLE_COLOUR( '', #364 );
#309 = VERTEX_POINT( '', #365 );
#310 = CIRCLE( '', #366, 7.00000000000000 );
#311 = LINE( '', #367, #368 );
#312 = FILL_AREA_STYLE_COLOUR( '', #369 );
#313 = LINE( '', #370, #371 );
#314 = FILL_AREA_STYLE_COLOUR( '', #372 );
#315 = VERTEX_POINT( '', #373 );
#316 = CIRCLE( '', #374, 7.00000000000000 );
#317 = FILL_AREA_STYLE_COLOUR( '', #375 );
#318 = COLOUR_RGB( '', 0.752941191196442, 0.752941191196442, 0.752941191196442 );
#319 = CARTESIAN_POINT( '', ( 147.000000000000, -10.5000000000000, 96.0000000000000 ) );
#320 = AXIS2_PLACEMENT_3D( '', #376, #377, #378 );
#321 = CARTESIAN_POINT( '', ( 162.000000000000, 4.50000000000000, 0.000000000000000 ) );
#322 = AXIS2_PLACEMENT_3D( '', #379, #380, #381 );
#323 = COLOUR_RGB( '', 0.752941191196442, 0.752941191196442, 0.752941191196442 );
#324 = CARTESIAN_POINT( '', ( -173.000000000000, 21.5000000000000, 0.000000000000000 ) );
#325 = CARTESIAN_POINT( '', ( -173.000000000000, -21.5000000000000, 0.000000000000000 ) );
#326 = CARTESIAN_POINT( '', ( -173.000000000000, 21.5000000000000, 0.000000000000000 ) );
#327 = VECTOR( '', #382, 1000.00000000000 );
#328 = CARTESIAN_POINT( '', ( -173.000000000000, -21.5000000000000, 96.0000000000000 ) );
#329 = CARTESIAN_POINT( '', ( -173.000000000000, -21.5000000000000, 96.0000000000000 ) );
#330 = VECTOR( '', #383, 1000.00000000000 );
#331 = CARTESIAN_POINT( '', ( -173.000000000000, 21.5000000000000, 96.0000000000000 ) );
#332 = CARTESIAN_POINT( '', ( -173.000000000000, 21.5000000000000, 96.0000000000000 ) );
#333 = VECTOR( '', #384, 1000.00000000000 );
#334 = CARTESIAN_POINT( '', ( -173.000000000000, 21.5000000000000, 96.0000000000000 ) );
#335 = VECTOR( '', #385, 1000.00000000000 );
#336 = COLOUR_RGB( '', 0.752941191196442, 0.752941191196442, 0.752941191196442 );
#337 = CARTESIAN_POINT( '', ( -147.000000000000, -10.5000000000000, 96.0000000000000 ) );
#338 = AXIS2_PLACEMENT_3D( '', #386, #387, #388 );
#339 = CARTESIAN_POINT( '', ( -132.000000000000, 4.50000000000000, 0.000000000000000 ) );
#340 = AXIS2_PLACEMENT_3D( '', #389, #390, #391 );
#341 = COLOUR_RGB( '', 0.752941191196442, 0.752941191196442, 0.752941191196442 );
#342 = CARTESIAN_POINT( '', ( 173.000000000000, -21.5000000000000, 0.000000000000000 ) );
#343 = CARTESIAN_POINT( '', ( 173.000000000000, 21.5000000000000, 0.000000000000000 ) );
#344 = CARTESIAN_POINT( '', ( 173.000000000000, -21.5000000000000, 0.000000000000000 ) );
#345 = VECTOR( '', #392, 1000.00000000000 );
#346 = CARTESIAN_POINT( '', ( 173.000000000000, 21.5000000000000, 96.0000000000000 ) );
#347 = CARTESIAN_POINT( '', ( 173.000000000000, 21.5000000000000, 96.0000000000000 ) );
#348 = VECTOR( '', #393, 1000.00000000000 );
#349 = CARTESIAN_POINT( '', ( 173.000000000000, -21.5000000000000, 96.0000000000000 ) );
#350 = CARTESIAN_POINT( '', ( 173.000000000000, -21.5000000000000, 96.0000000000000 ) );
#351 = VECTOR( '', #394, 1000.00000000000 );
#352 = CARTESIAN_POINT( '', ( 173.000000000000, -21.5000000000000, 96.0000000000000 ) );
#353 = VECTOR( '', #395, 1000.00000000000 );
#354 = COLOUR_RGB( '', 0.752941191196442, 0.752941191196442, 0.752941191196442 );
#355 = CARTESIAN_POINT( '', ( 112.000000000000, -2.49999999999994, 96.0000000000000 ) );
#356 = AXIS2_PLACEMENT_3D( '', #396, #397, #398 );
#357 = CARTESIAN_POINT( '', ( 119.000000000000, 4.50000000000006, 0.000000000000000 ) );
#358 = AXIS2_PLACEMENT_3D( '', #399, #400, #401 );
#359 = COLOUR_RGB( '', 0.752941191196442, 0.752941191196442, 0.752941191196442 );
#360 = CARTESIAN_POINT( '', ( 173.000000000000, 21.5000000000000, 0.000000000000000 ) );
#361 = VECTOR( '', #402, 1000.00000000000 );
#362 = CARTESIAN_POINT( '', ( 173.000000000000, 21.5000000000000, 96.0000000000000 ) );
#363 = VECTOR( '', #403, 1000.00000000000 );
#364 = COLOUR_RGB( '', 0.752941191196442, 0.752941191196442, 0.752941191196442 );
#365 = CARTESIAN_POINT( '', ( -105.000000000000, 4.50000000000000, 0.000000000000000 ) );
#366 = AXIS2_PLACEMENT_3D( '', #404, #405, #406 );
#367 = CARTESIAN_POINT( '', ( -173.000000000000, -21.5000000000000, 0.000000000000000 ) );
#368 = VECTOR( '', #407, 1000.00000000000 );
#369 = COLOUR_RGB( '', 0.752941191196442, 0.752941191196442, 0.752941191196442 );
#370 = CARTESIAN_POINT( '', ( -173.000000000000, -21.5000000000000, 96.0000000000000 ) );
#371 = VECTOR( '', #408, 1000.00000000000 );
#372 = COLOUR_RGB( '', 0.752941191196442, 0.752941191196442, 0.752941191196442 );
#373 = CARTESIAN_POINT( '', ( -112.000000000000, -2.50000000000000, 96.0000000000000 ) );
#374 = AXIS2_PLACEMENT_3D( '', #409, #410, #411 );
#375 = COLOUR_RGB( '', 0.752941191196442, 0.752941191196442, 0.752941191196442 );
#376 = CARTESIAN_POINT( '', ( 147.000000000000, 4.50000000000000, 96.0000000000000 ) );
#377 = DIRECTION( '', ( 0.000000000000000, 0.000000000000000, -1.00000000000000 ) );
#378 = DIRECTION( '', ( 0.000000000000000, -1.00000000000000, 0.000000000000000 ) );
#379 = CARTESIAN_POINT( '', ( 147.000000000000, 4.50000000000000, 0.000000000000000 ) );
#380 = DIRECTION( '', ( 0.000000000000000, 0.000000000000000, 1.00000000000000 ) );
#381 = DIRECTION( '', ( 1.00000000000000, 0.000000000000000, 0.000000000000000 ) );
#382 = DIRECTION( '', ( 0.000000000000000, -1.00000000000000, 0.000000000000000 ) );
#383 = DIRECTION( '', ( 0.000000000000000, 0.000000000000000, -1.00000000000000 ) );
#384 = DIRECTION( '', ( 0.000000000000000, -1.00000000000000, 0.000000000000000 ) );
#385 = DIRECTION( '', ( 0.000000000000000, 0.000000000000000, -1.00000000000000 ) );
#386 = CARTESIAN_POINT( '', ( -147.000000000000, 4.50000000000000, 96.0000000000000 ) );
#387 = DIRECTION( '', ( 0.000000000000000, 0.000000000000000, -1.00000000000000 ) );
#388 = DIRECTION( '', ( 0.000000000000000, -1.00000000000000, 0.000000000000000 ) );
#389 = CARTESIAN_POINT( '', ( -147.000000000000, 4.50000000000000, 0.000000000000000 ) );
#390 = DIRECTION( '', ( 0.000000000000000, 0.000000000000000, 1.00000000000000 ) );
#391 = DIRECTION( '', ( 1.00000000000000, 0.000000000000000, 0.000000000000000 ) );
#392 = DIRECTION( '', ( 0.000000000000000, 1.00000000000000, 0.000000000000000 ) );
#393 = DIRECTION( '', ( 0.000000000000000, 0.000000000000000, -1.00000000000000 ) );
#394 = DIRECTION( '', ( 0.000000000000000, 1.00000000000000, 0.000000000000000 ) );
#395 = DIRECTION( '', ( 0.000000000000000, 0.000000000000000, -1.00000000000000 ) );
#396 = CARTESIAN_POINT( '', ( 112.000000000000, 4.50000000000006, 96.0000000000000 ) );
#397 = DIRECTION( '', ( 0.000000000000000, 0.000000000000000, -1.00000000000000 ) );
#398 = DIRECTION( '', ( 0.000000000000000, -1.00000000000000, 0.000000000000000 ) );
#399 = CARTESIAN_POINT( '', ( 112.000000000000, 4.50000000000006, 0.000000000000000 ) );
#400 = DIRECTION( '', ( 0.000000000000000, 0.000000000000000, 1.00000000000000 ) );
#401 = DIRECTION( '', ( 1.00000000000000, 0.000000000000000, 0.000000000000000 ) );
#402 = DIRECTION( '', ( -1.00000000000000, 1.60436853269532E-016, 0.000000000000000 ) );
#403 = DIRECTION( '', ( -1.00000000000000, 1.60436853269532E-016, 0.000000000000000 ) );
#404 = CARTESIAN_POINT( '', ( -112.000000000000, 4.50000000000000, 0.000000000000000 ) );
#405 = DIRECTION( '', ( 0.000000000000000, 0.000000000000000, 1.00000000000000 ) );
#406 = DIRECTION( '', ( 1.00000000000000, 0.000000000000000, 0.000000000000000 ) );
#407 = DIRECTION( '', ( 1.00000000000000, -6.01638199760742E-017, 0.000000000000000 ) );
#408 = DIRECTION( '', ( 1.00000000000000, -6.01638199760742E-017, 0.000000000000000 ) );
#409 = CARTESIAN_POINT( '', ( -112.000000000000, 4.50000000000000, 96.0000000000000 ) );
#410 = DIRECTION( '', ( 0.000000000000000, 0.000000000000000, -1.00000000000000 ) );
#411 = DIRECTION( '', ( 0.000000000000000, -1.00000000000000, 0.000000000000000 ) );
ENDSEC;
END-ISO-10303-21;
