ISO-10303-21;
HEADER;
FILE_DESCRIPTION( ( 'Unknown' ), '1' );
FILE_NAME( 'M:/Piezas_3D/Placas_Par/G2/OS_G2_346x696x076_.stp', 'Unknown', ( 'Unknown' ), ( 'Unknown' ), 'PSStep 16.0.42', 'Unknown', '  ' );
FILE_SCHEMA( ( 'AUTOMOTIVE_DESIGN { 1 0 10303 214 1 1 1 1 }' ) );
ENDSEC;
DATA;
#1 = MECHANICAL_DESIGN_GEOMETRIC_PRESENTATION_REPRESENTATION( ' ', ( #10, #11, #12, #13, #14, #15, #16, #17, #18, #19 ), #6 );
#2 = PRODUCT_DEFINITION_CONTEXT( '', #20, 'design' );
#3 = APPLICATION_PROTOCOL_DEFINITION( 'international standard', 'automotive_design', 2001, #20 );
#4 = PRODUCT_CATEGORY_RELATIONSHIP( 'NONE', 'NONE', #21, #22 );
#5 = SHAPE_DEFINITION_REPRESENTATION( #23, #24 );
#6 =  ( GEOMETRIC_REPRESENTATION_CONTEXT( 3 )GLOBAL_UNCERTAINTY_ASSIGNED_CONTEXT( ( #27 ) )GLOBAL_UNIT_ASSIGNED_CONTEXT( ( #29, #30, #31 ) )REPRESENTATION_CONTEXT( 'NONE', 'WORKSPACE' ) );
#10 = STYLED_ITEM( '', ( #33 ), #34 );
#11 = STYLED_ITEM( '', ( #35 ), #36 );
#12 = STYLED_ITEM( '', ( #37 ), #38 );
#13 = STYLED_ITEM( '', ( #39 ), #40 );
#14 = STYLED_ITEM( '', ( #41 ), #42 );
#15 = STYLED_ITEM( '', ( #43 ), #44 );
#16 = STYLED_ITEM( '', ( #45 ), #46 );
#17 = STYLED_ITEM( '', ( #47 ), #48 );
#18 = STYLED_ITEM( '', ( #49 ), #50 );
#19 = STYLED_ITEM( '', ( #51 ), #52 );
#20 = APPLICATION_CONTEXT( 'core data for automotive mechanical design processes' );
#21 = PRODUCT_CATEGORY( 'part', 'NONE' );
#22 = PRODUCT_RELATED_PRODUCT_CATEGORY( 'detail', ' ', ( #53 ) );
#23 = PRODUCT_DEFINITION_SHAPE( 'NONE', 'NONE', #54 );
#24 = ADVANCED_BREP_SHAPE_REPRESENTATION( '1', ( #55, #56 ), #6 );
#27 = UNCERTAINTY_MEASURE_WITH_UNIT( LENGTH_MEASURE( 0.00100000000000000 ), #29, '', '' );
#29 =  ( CONVERSION_BASED_UNIT( 'MILLIMETRE', #59 )LENGTH_UNIT(  )NAMED_UNIT( #62 ) );
#30 =  ( NAMED_UNIT( #64 )PLANE_ANGLE_UNIT(  )SI_UNIT( $, .RADIAN. ) );
#31 =  ( NAMED_UNIT( #64 )SI_UNIT( $, .STERADIAN. )SOLID_ANGLE_UNIT(  ) );
#33 = PRESENTATION_STYLE_ASSIGNMENT( ( #70 ) );
#34 = ADVANCED_FACE( '', ( #71 ), #72, .F. );
#35 = PRESENTATION_STYLE_ASSIGNMENT( ( #73 ) );
#36 = ADVANCED_FACE( '', ( #74, #75 ), #76, .F. );
#37 = PRESENTATION_STYLE_ASSIGNMENT( ( #77 ) );
#38 = ADVANCED_FACE( '', ( #78, #79 ), #80, .F. );
#39 = PRESENTATION_STYLE_ASSIGNMENT( ( #81 ) );
#40 = ADVANCED_FACE( '', ( #82 ), #83, .F. );
#41 = PRESENTATION_STYLE_ASSIGNMENT( ( #84 ) );
#42 = ADVANCED_FACE( '', ( #85 ), #86, .F. );
#43 = PRESENTATION_STYLE_ASSIGNMENT( ( #87 ) );
#44 = ADVANCED_FACE( '', ( #88, #89, #90, #91, #92 ), #93, .T. );
#45 = PRESENTATION_STYLE_ASSIGNMENT( ( #94 ) );
#46 = ADVANCED_FACE( '', ( #95 ), #96, .F. );
#47 = PRESENTATION_STYLE_ASSIGNMENT( ( #97 ) );
#48 = ADVANCED_FACE( '', ( #98, #99 ), #100, .F. );
#49 = PRESENTATION_STYLE_ASSIGNMENT( ( #101 ) );
#50 = ADVANCED_FACE( '', ( #102, #103, #104, #105, #106 ), #107, .F. );
#51 = PRESENTATION_STYLE_ASSIGNMENT( ( #108 ) );
#52 = ADVANCED_FACE( '', ( #109, #110 ), #111, .F. );
#53 = PRODUCT( '1', '1', 'PART-1-DESC', ( #112 ) );
#54 = PRODUCT_DEFINITION( 'NONE', 'NONE', #113, #2 );
#55 = MANIFOLD_SOLID_BREP( '1', #114 );
#56 = AXIS2_PLACEMENT_3D( '', #115, #116, #117 );
#59 = LENGTH_MEASURE_WITH_UNIT( LENGTH_MEASURE( 1.00000000000000 ), #118 );
#62 = DIMENSIONAL_EXPONENTS( 1.00000000000000, 0.000000000000000, 0.000000000000000, 0.000000000000000, 0.000000000000000, 0.000000000000000, 0.000000000000000 );
#64 = DIMENSIONAL_EXPONENTS( 0.000000000000000, 0.000000000000000, 0.000000000000000, 0.000000000000000, 0.000000000000000, 0.000000000000000, 0.000000000000000 );
#70 = SURFACE_STYLE_USAGE( .BOTH., #119 );
#71 = FACE_OUTER_BOUND( '', #120, .T. );
#72 = PLANE( '', #121 );
#73 = SURFACE_STYLE_USAGE( .BOTH., #122 );
#74 = FACE_OUTER_BOUND( '', #123, .T. );
#75 = FACE_OUTER_BOUND( '', #124, .T. );
#76 = CYLINDRICAL_SURFACE( '', #125, 9.00000000000000 );
#77 = SURFACE_STYLE_USAGE( .BOTH., #126 );
#78 = FACE_OUTER_BOUND( '', #127, .T. );
#79 = FACE_OUTER_BOUND( '', #128, .T. );
#80 = CYLINDRICAL_SURFACE( '', #129, 21.0000000000000 );
#81 = SURFACE_STYLE_USAGE( .BOTH., #130 );
#82 = FACE_OUTER_BOUND( '', #131, .T. );
#83 = PLANE( '', #132 );
#84 = SURFACE_STYLE_USAGE( .BOTH., #133 );
#85 = FACE_OUTER_BOUND( '', #134, .T. );
#86 = PLANE( '', #135 );
#87 = SURFACE_STYLE_USAGE( .BOTH., #136 );
#88 = FACE_BOUND( '', #137, .T. );
#89 = FACE_BOUND( '', #138, .T. );
#90 = FACE_BOUND( '', #139, .T. );
#91 = FACE_BOUND( '', #140, .T. );
#92 = FACE_OUTER_BOUND( '', #141, .T. );
#93 = PLANE( '', #142 );
#94 = SURFACE_STYLE_USAGE( .BOTH., #143 );
#95 = FACE_OUTER_BOUND( '', #144, .T. );
#96 = PLANE( '', #145 );
#97 = SURFACE_STYLE_USAGE( .BOTH., #146 );
#98 = FACE_OUTER_BOUND( '', #147, .T. );
#99 = FACE_OUTER_BOUND( '', #148, .T. );
#100 = CYLINDRICAL_SURFACE( '', #149, 21.0000000000000 );
#101 = SURFACE_STYLE_USAGE( .BOTH., #150 );
#102 = FACE_BOUND( '', #151, .T. );
#103 = FACE_BOUND( '', #152, .T. );
#104 = FACE_BOUND( '', #153, .T. );
#105 = FACE_BOUND( '', #154, .T. );
#106 = FACE_OUTER_BOUND( '', #155, .T. );
#107 = PLANE( '', #156 );
#108 = SURFACE_STYLE_USAGE( .BOTH., #157 );
#109 = FACE_OUTER_BOUND( '', #158, .T. );
#110 = FACE_OUTER_BOUND( '', #159, .T. );
#111 = CYLINDRICAL_SURFACE( '', #160, 9.00000000000000 );
#112 = PRODUCT_CONTEXT( '', #20, 'mechanical' );
#113 = PRODUCT_DEFINITION_FORMATION_WITH_SPECIFIED_SOURCE( ' ', 'NONE', #53, .NOT_KNOWN. );
#114 = CLOSED_SHELL( '', ( #52, #50, #42, #44, #34, #40, #46, #36, #38, #48 ) );
#115 = CARTESIAN_POINT( '', ( 0.000000000000000, 0.000000000000000, 0.000000000000000 ) );
#116 = DIRECTION( '', ( 0.000000000000000, 0.000000000000000, 1.00000000000000 ) );
#117 = DIRECTION( '', ( 1.00000000000000, 0.000000000000000, 0.000000000000000 ) );
#118 =  ( LENGTH_UNIT(  )NAMED_UNIT( #62 )SI_UNIT( .MILLI., .METRE. ) );
#119 = SURFACE_SIDE_STYLE( '', ( #162 ) );
#120 = EDGE_LOOP( '', ( #163, #164, #165, #166 ) );
#121 = AXIS2_PLACEMENT_3D( '', #167, #168, #169 );
#122 = SURFACE_SIDE_STYLE( '', ( #170 ) );
#123 = EDGE_LOOP( '', ( #171 ) );
#124 = EDGE_LOOP( '', ( #172 ) );
#125 = AXIS2_PLACEMENT_3D( '', #173, #174, #175 );
#126 = SURFACE_SIDE_STYLE( '', ( #176 ) );
#127 = EDGE_LOOP( '', ( #177 ) );
#128 = EDGE_LOOP( '', ( #178 ) );
#129 = AXIS2_PLACEMENT_3D( '', #179, #180, #181 );
#130 = SURFACE_SIDE_STYLE( '', ( #182 ) );
#131 = EDGE_LOOP( '', ( #183, #184, #185, #186 ) );
#132 = AXIS2_PLACEMENT_3D( '', #187, #188, #189 );
#133 = SURFACE_SIDE_STYLE( '', ( #190 ) );
#134 = EDGE_LOOP( '', ( #191, #192, #193, #194 ) );
#135 = AXIS2_PLACEMENT_3D( '', #195, #196, #197 );
#136 = SURFACE_SIDE_STYLE( '', ( #198 ) );
#137 = EDGE_LOOP( '', ( #199 ) );
#138 = EDGE_LOOP( '', ( #200 ) );
#139 = EDGE_LOOP( '', ( #201 ) );
#140 = EDGE_LOOP( '', ( #202 ) );
#141 = EDGE_LOOP( '', ( #203, #204, #205, #206 ) );
#142 = AXIS2_PLACEMENT_3D( '', #207, #208, #209 );
#143 = SURFACE_SIDE_STYLE( '', ( #210 ) );
#144 = EDGE_LOOP( '', ( #211, #212, #213, #214 ) );
#145 = AXIS2_PLACEMENT_3D( '', #215, #216, #217 );
#146 = SURFACE_SIDE_STYLE( '', ( #218 ) );
#147 = EDGE_LOOP( '', ( #219 ) );
#148 = EDGE_LOOP( '', ( #220 ) );
#149 = AXIS2_PLACEMENT_3D( '', #221, #222, #223 );
#150 = SURFACE_SIDE_STYLE( '', ( #224 ) );
#151 = EDGE_LOOP( '', ( #225 ) );
#152 = EDGE_LOOP( '', ( #226 ) );
#153 = EDGE_LOOP( '', ( #227 ) );
#154 = EDGE_LOOP( '', ( #228 ) );
#155 = EDGE_LOOP( '', ( #229, #230, #231, #232 ) );
#156 = AXIS2_PLACEMENT_3D( '', #233, #234, #235 );
#157 = SURFACE_SIDE_STYLE( '', ( #236 ) );
#158 = EDGE_LOOP( '', ( #237 ) );
#159 = EDGE_LOOP( '', ( #238 ) );
#160 = AXIS2_PLACEMENT_3D( '', #239, #240, #241 );
#162 = SURFACE_STYLE_FILL_AREA( #242 );
#163 = ORIENTED_EDGE( '', *, *, #243, .T. );
#164 = ORIENTED_EDGE( '', *, *, #244, .F. );
#165 = ORIENTED_EDGE( '', *, *, #245, .F. );
#166 = ORIENTED_EDGE( '', *, *, #246, .T. );
#167 = CARTESIAN_POINT( '', ( -348.000000000000, -31.0000000000000, 76.0000000000000 ) );
#168 = DIRECTION( '', ( 5.48332133211060E-017, 1.00000000000000, 0.000000000000000 ) );
#169 = DIRECTION( '', ( -1.00000000000000, 5.48332133211060E-017, 0.000000000000000 ) );
#170 = SURFACE_STYLE_FILL_AREA( #247 );
#171 = ORIENTED_EDGE( '', *, *, #248, .F. );
#172 = ORIENTED_EDGE( '', *, *, #249, .F. );
#173 = CARTESIAN_POINT( '', ( 265.000000000000, 5.00000000000007, 76.0000000000000 ) );
#174 = DIRECTION( '', ( -0.000000000000000, -0.000000000000000, 1.00000000000000 ) );
#175 = DIRECTION( '', ( 0.000000000000000, -1.00000000000000, 0.000000000000000 ) );
#176 = SURFACE_STYLE_FILL_AREA( #250 );
#177 = ORIENTED_EDGE( '', *, *, #251, .F. );
#178 = ORIENTED_EDGE( '', *, *, #252, .F. );
#179 = CARTESIAN_POINT( '', ( 312.000000000000, 5.00000000000000, 76.0000000000000 ) );
#180 = DIRECTION( '', ( -0.000000000000000, -0.000000000000000, 1.00000000000000 ) );
#181 = DIRECTION( '', ( 0.000000000000000, -1.00000000000000, 0.000000000000000 ) );
#182 = SURFACE_STYLE_FILL_AREA( #253 );
#183 = ORIENTED_EDGE( '', *, *, #254, .T. );
#184 = ORIENTED_EDGE( '', *, *, #255, .F. );
#185 = ORIENTED_EDGE( '', *, *, #256, .F. );
#186 = ORIENTED_EDGE( '', *, *, #257, .T. );
#187 = CARTESIAN_POINT( '', ( 348.000000000000, 31.0000000000000, 76.0000000000000 ) );
#188 = DIRECTION( '', ( -2.99090254478760E-017, -1.00000000000000, 0.000000000000000 ) );
#189 = DIRECTION( '', ( 1.00000000000000, -2.99090254478760E-017, 0.000000000000000 ) );
#190 = SURFACE_STYLE_FILL_AREA( #258 );
#191 = ORIENTED_EDGE( '', *, *, #259, .T. );
#192 = ORIENTED_EDGE( '', *, *, #257, .F. );
#193 = ORIENTED_EDGE( '', *, *, #260, .F. );
#194 = ORIENTED_EDGE( '', *, *, #244, .T. );
#195 = CARTESIAN_POINT( '', ( 348.000000000000, -31.0000000000000, 76.0000000000000 ) );
#196 = DIRECTION( '', ( -1.00000000000000, 0.000000000000000, 0.000000000000000 ) );
#197 = DIRECTION( '', ( 0.000000000000000, 0.000000000000000, 1.00000000000000 ) );
#198 = SURFACE_STYLE_FILL_AREA( #261 );
#199 = ORIENTED_EDGE( '', *, *, #262, .T. );
#200 = ORIENTED_EDGE( '', *, *, #251, .T. );
#201 = ORIENTED_EDGE( '', *, *, #248, .T. );
#202 = ORIENTED_EDGE( '', *, *, #263, .T. );
#203 = ORIENTED_EDGE( '', *, *, #256, .T. );
#204 = ORIENTED_EDGE( '', *, *, #264, .T. );
#205 = ORIENTED_EDGE( '', *, *, #245, .T. );
#206 = ORIENTED_EDGE( '', *, *, #260, .T. );
#207 = CARTESIAN_POINT( '', ( -348.000000000000, 31.0000000000000, 76.0000000000000 ) );
#208 = DIRECTION( '', ( 0.000000000000000, 0.000000000000000, 1.00000000000000 ) );
#209 = DIRECTION( '', ( 1.00000000000000, 0.000000000000000, 0.000000000000000 ) );
#210 = SURFACE_STYLE_FILL_AREA( #265 );
#211 = ORIENTED_EDGE( '', *, *, #266, .T. );
#212 = ORIENTED_EDGE( '', *, *, #246, .F. );
#213 = ORIENTED_EDGE( '', *, *, #264, .F. );
#214 = ORIENTED_EDGE( '', *, *, #255, .T. );
#215 = CARTESIAN_POINT( '', ( -348.000000000000, 31.0000000000000, 76.0000000000000 ) );
#216 = DIRECTION( '', ( 1.00000000000000, 0.000000000000000, 0.000000000000000 ) );
#217 = DIRECTION( '', ( 0.000000000000000, 0.000000000000000, -1.00000000000000 ) );
#218 = SURFACE_STYLE_FILL_AREA( #267 );
#219 = ORIENTED_EDGE( '', *, *, #262, .F. );
#220 = ORIENTED_EDGE( '', *, *, #268, .F. );
#221 = CARTESIAN_POINT( '', ( -312.000000000000, 5.00000000000000, 76.0000000000000 ) );
#222 = DIRECTION( '', ( -0.000000000000000, -0.000000000000000, 1.00000000000000 ) );
#223 = DIRECTION( '', ( 0.000000000000000, -1.00000000000000, 0.000000000000000 ) );
#224 = SURFACE_STYLE_FILL_AREA( #269 );
#225 = ORIENTED_EDGE( '', *, *, #268, .T. );
#226 = ORIENTED_EDGE( '', *, *, #252, .T. );
#227 = ORIENTED_EDGE( '', *, *, #249, .T. );
#228 = ORIENTED_EDGE( '', *, *, #270, .T. );
#229 = ORIENTED_EDGE( '', *, *, #254, .F. );
#230 = ORIENTED_EDGE( '', *, *, #259, .F. );
#231 = ORIENTED_EDGE( '', *, *, #243, .F. );
#232 = ORIENTED_EDGE( '', *, *, #266, .F. );
#233 = CARTESIAN_POINT( '', ( -348.000000000000, 31.0000000000000, 0.000000000000000 ) );
#234 = DIRECTION( '', ( 0.000000000000000, 0.000000000000000, 1.00000000000000 ) );
#235 = DIRECTION( '', ( 1.00000000000000, 0.000000000000000, 0.000000000000000 ) );
#236 = SURFACE_STYLE_FILL_AREA( #271 );
#237 = ORIENTED_EDGE( '', *, *, #263, .F. );
#238 = ORIENTED_EDGE( '', *, *, #270, .F. );
#239 = CARTESIAN_POINT( '', ( -265.000000000000, 5.00000000000000, 76.0000000000000 ) );
#240 = DIRECTION( '', ( -0.000000000000000, -0.000000000000000, 1.00000000000000 ) );
#241 = DIRECTION( '', ( 0.000000000000000, -1.00000000000000, 0.000000000000000 ) );
#242 = FILL_AREA_STYLE( '', ( #272 ) );
#243 = EDGE_CURVE( '', #273, #274, #275, .T. );
#244 = EDGE_CURVE( '', #276, #274, #277, .T. );
#245 = EDGE_CURVE( '', #278, #276, #279, .T. );
#246 = EDGE_CURVE( '', #278, #273, #280, .T. );
#247 = FILL_AREA_STYLE( '', ( #281 ) );
#248 = EDGE_CURVE( '', #282, #282, #283, .T. );
#249 = EDGE_CURVE( '', #284, #284, #285, .T. );
#250 = FILL_AREA_STYLE( '', ( #286 ) );
#251 = EDGE_CURVE( '', #287, #287, #288, .T. );
#252 = EDGE_CURVE( '', #289, #289, #290, .T. );
#253 = FILL_AREA_STYLE( '', ( #291 ) );
#254 = EDGE_CURVE( '', #292, #293, #294, .T. );
#255 = EDGE_CURVE( '', #295, #293, #296, .T. );
#256 = EDGE_CURVE( '', #297, #295, #298, .T. );
#257 = EDGE_CURVE( '', #297, #292, #299, .T. );
#258 = FILL_AREA_STYLE( '', ( #300 ) );
#259 = EDGE_CURVE( '', #274, #292, #301, .T. );
#260 = EDGE_CURVE( '', #276, #297, #302, .T. );
#261 = FILL_AREA_STYLE( '', ( #303 ) );
#262 = EDGE_CURVE( '', #304, #304, #305, .T. );
#263 = EDGE_CURVE( '', #306, #306, #307, .T. );
#264 = EDGE_CURVE( '', #295, #278, #308, .T. );
#265 = FILL_AREA_STYLE( '', ( #309 ) );
#266 = EDGE_CURVE( '', #293, #273, #310, .T. );
#267 = FILL_AREA_STYLE( '', ( #311 ) );
#268 = EDGE_CURVE( '', #312, #312, #313, .T. );
#269 = FILL_AREA_STYLE( '', ( #314 ) );
#270 = EDGE_CURVE( '', #315, #315, #316, .T. );
#271 = FILL_AREA_STYLE( '', ( #317 ) );
#272 = FILL_AREA_STYLE_COLOUR( '', #318 );
#273 = VERTEX_POINT( '', #319 );
#274 = VERTEX_POINT( '', #320 );
#275 = LINE( '', #321, #322 );
#276 = VERTEX_POINT( '', #323 );
#277 = LINE( '', #324, #325 );
#278 = VERTEX_POINT( '', #326 );
#279 = LINE( '', #327, #328 );
#280 = LINE( '', #329, #330 );
#281 = FILL_AREA_STYLE_COLOUR( '', #331 );
#282 = VERTEX_POINT( '', #332 );
#283 = CIRCLE( '', #333, 9.00000000000000 );
#284 = VERTEX_POINT( '', #334 );
#285 = CIRCLE( '', #335, 9.00000000000000 );
#286 = FILL_AREA_STYLE_COLOUR( '', #336 );
#287 = VERTEX_POINT( '', #337 );
#288 = CIRCLE( '', #338, 21.0000000000000 );
#289 = VERTEX_POINT( '', #339 );
#290 = CIRCLE( '', #340, 21.0000000000000 );
#291 = FILL_AREA_STYLE_COLOUR( '', #341 );
#292 = VERTEX_POINT( '', #342 );
#293 = VERTEX_POINT( '', #343 );
#294 = LINE( '', #344, #345 );
#295 = VERTEX_POINT( '', #346 );
#296 = LINE( '', #347, #348 );
#297 = VERTEX_POINT( '', #349 );
#298 = LINE( '', #350, #351 );
#299 = LINE( '', #352, #353 );
#300 = FILL_AREA_STYLE_COLOUR( '', #354 );
#301 = LINE( '', #355, #356 );
#302 = LINE( '', #357, #358 );
#303 = FILL_AREA_STYLE_COLOUR( '', #359 );
#304 = VERTEX_POINT( '', #360 );
#305 = CIRCLE( '', #361, 21.0000000000000 );
#306 = VERTEX_POINT( '', #362 );
#307 = CIRCLE( '', #363, 9.00000000000000 );
#308 = LINE( '', #364, #365 );
#309 = FILL_AREA_STYLE_COLOUR( '', #366 );
#310 = LINE( '', #367, #368 );
#311 = FILL_AREA_STYLE_COLOUR( '', #369 );
#312 = VERTEX_POINT( '', #370 );
#313 = CIRCLE( '', #371, 21.0000000000000 );
#314 = FILL_AREA_STYLE_COLOUR( '', #372 );
#315 = VERTEX_POINT( '', #373 );
#316 = CIRCLE( '', #374, 9.00000000000000 );
#317 = FILL_AREA_STYLE_COLOUR( '', #375 );
#318 = COLOUR_RGB( '', 0.752941191196442, 0.752941191196442, 0.752941191196442 );
#319 = CARTESIAN_POINT( '', ( -348.000000000000, -31.0000000000000, 0.000000000000000 ) );
#320 = CARTESIAN_POINT( '', ( 348.000000000000, -31.0000000000000, 0.000000000000000 ) );
#321 = CARTESIAN_POINT( '', ( -348.000000000000, -31.0000000000000, 0.000000000000000 ) );
#322 = VECTOR( '', #376, 1000.00000000000 );
#323 = CARTESIAN_POINT( '', ( 348.000000000000, -31.0000000000000, 76.0000000000000 ) );
#324 = CARTESIAN_POINT( '', ( 348.000000000000, -31.0000000000000, 76.0000000000000 ) );
#325 = VECTOR( '', #377, 1000.00000000000 );
#326 = CARTESIAN_POINT( '', ( -348.000000000000, -31.0000000000000, 76.0000000000000 ) );
#327 = CARTESIAN_POINT( '', ( -348.000000000000, -31.0000000000000, 76.0000000000000 ) );
#328 = VECTOR( '', #378, 1000.00000000000 );
#329 = CARTESIAN_POINT( '', ( -348.000000000000, -31.0000000000000, 76.0000000000000 ) );
#330 = VECTOR( '', #379, 1000.00000000000 );
#331 = COLOUR_RGB( '', 0.752941191196442, 0.752941191196442, 0.752941191196442 );
#332 = CARTESIAN_POINT( '', ( 265.000000000000, -3.99999999999993, 76.0000000000000 ) );
#333 = AXIS2_PLACEMENT_3D( '', #380, #381, #382 );
#334 = CARTESIAN_POINT( '', ( 274.000000000000, 5.00000000000007, 0.000000000000000 ) );
#335 = AXIS2_PLACEMENT_3D( '', #383, #384, #385 );
#336 = COLOUR_RGB( '', 0.752941191196442, 0.752941191196442, 0.752941191196442 );
#337 = CARTESIAN_POINT( '', ( 312.000000000000, -16.0000000000000, 76.0000000000000 ) );
#338 = AXIS2_PLACEMENT_3D( '', #386, #387, #388 );
#339 = CARTESIAN_POINT( '', ( 333.000000000000, 5.00000000000000, 0.000000000000000 ) );
#340 = AXIS2_PLACEMENT_3D( '', #389, #390, #391 );
#341 = COLOUR_RGB( '', 0.752941191196442, 0.752941191196442, 0.752941191196442 );
#342 = CARTESIAN_POINT( '', ( 348.000000000000, 31.0000000000000, 0.000000000000000 ) );
#343 = CARTESIAN_POINT( '', ( -348.000000000000, 31.0000000000000, 0.000000000000000 ) );
#344 = CARTESIAN_POINT( '', ( 348.000000000000, 31.0000000000000, 0.000000000000000 ) );
#345 = VECTOR( '', #392, 1000.00000000000 );
#346 = CARTESIAN_POINT( '', ( -348.000000000000, 31.0000000000000, 76.0000000000000 ) );
#347 = CARTESIAN_POINT( '', ( -348.000000000000, 31.0000000000000, 76.0000000000000 ) );
#348 = VECTOR( '', #393, 1000.00000000000 );
#349 = CARTESIAN_POINT( '', ( 348.000000000000, 31.0000000000000, 76.0000000000000 ) );
#350 = CARTESIAN_POINT( '', ( 348.000000000000, 31.0000000000000, 76.0000000000000 ) );
#351 = VECTOR( '', #394, 1000.00000000000 );
#352 = CARTESIAN_POINT( '', ( 348.000000000000, 31.0000000000000, 76.0000000000000 ) );
#353 = VECTOR( '', #395, 1000.00000000000 );
#354 = COLOUR_RGB( '', 0.752941191196442, 0.752941191196442, 0.752941191196442 );
#355 = CARTESIAN_POINT( '', ( 348.000000000000, -31.0000000000000, 0.000000000000000 ) );
#356 = VECTOR( '', #396, 1000.00000000000 );
#357 = CARTESIAN_POINT( '', ( 348.000000000000, -31.0000000000000, 76.0000000000000 ) );
#358 = VECTOR( '', #397, 1000.00000000000 );
#359 = COLOUR_RGB( '', 0.752941191196442, 0.752941191196442, 0.752941191196442 );
#360 = CARTESIAN_POINT( '', ( -312.000000000000, -16.0000000000000, 76.0000000000000 ) );
#361 = AXIS2_PLACEMENT_3D( '', #398, #399, #400 );
#362 = CARTESIAN_POINT( '', ( -265.000000000000, -4.00000000000000, 76.0000000000000 ) );
#363 = AXIS2_PLACEMENT_3D( '', #401, #402, #403 );
#364 = CARTESIAN_POINT( '', ( -348.000000000000, 31.0000000000000, 76.0000000000000 ) );
#365 = VECTOR( '', #404, 1000.00000000000 );
#366 = COLOUR_RGB( '', 0.752941191196442, 0.752941191196442, 0.752941191196442 );
#367 = CARTESIAN_POINT( '', ( -348.000000000000, 31.0000000000000, 0.000000000000000 ) );
#368 = VECTOR( '', #405, 1000.00000000000 );
#369 = COLOUR_RGB( '', 0.752941191196442, 0.752941191196442, 0.752941191196442 );
#370 = CARTESIAN_POINT( '', ( -291.000000000000, 5.00000000000000, 0.000000000000000 ) );
#371 = AXIS2_PLACEMENT_3D( '', #406, #407, #408 );
#372 = COLOUR_RGB( '', 0.752941191196442, 0.752941191196442, 0.752941191196442 );
#373 = CARTESIAN_POINT( '', ( -256.000000000000, 5.00000000000000, 0.000000000000000 ) );
#374 = AXIS2_PLACEMENT_3D( '', #409, #410, #411 );
#375 = COLOUR_RGB( '', 0.752941191196442, 0.752941191196442, 0.752941191196442 );
#376 = DIRECTION( '', ( 1.00000000000000, -5.48332133211060E-017, 0.000000000000000 ) );
#377 = DIRECTION( '', ( 0.000000000000000, 0.000000000000000, -1.00000000000000 ) );
#378 = DIRECTION( '', ( 1.00000000000000, -5.48332133211060E-017, 0.000000000000000 ) );
#379 = DIRECTION( '', ( 0.000000000000000, 0.000000000000000, -1.00000000000000 ) );
#380 = CARTESIAN_POINT( '', ( 265.000000000000, 5.00000000000007, 76.0000000000000 ) );
#381 = DIRECTION( '', ( 0.000000000000000, 0.000000000000000, -1.00000000000000 ) );
#382 = DIRECTION( '', ( 0.000000000000000, -1.00000000000000, 0.000000000000000 ) );
#383 = CARTESIAN_POINT( '', ( 265.000000000000, 5.00000000000007, 0.000000000000000 ) );
#384 = DIRECTION( '', ( 0.000000000000000, 0.000000000000000, 1.00000000000000 ) );
#385 = DIRECTION( '', ( 1.00000000000000, 0.000000000000000, 0.000000000000000 ) );
#386 = CARTESIAN_POINT( '', ( 312.000000000000, 5.00000000000000, 76.0000000000000 ) );
#387 = DIRECTION( '', ( 0.000000000000000, 0.000000000000000, -1.00000000000000 ) );
#388 = DIRECTION( '', ( 0.000000000000000, -1.00000000000000, 0.000000000000000 ) );
#389 = CARTESIAN_POINT( '', ( 312.000000000000, 5.00000000000000, 0.000000000000000 ) );
#390 = DIRECTION( '', ( 0.000000000000000, 0.000000000000000, 1.00000000000000 ) );
#391 = DIRECTION( '', ( 1.00000000000000, 0.000000000000000, 0.000000000000000 ) );
#392 = DIRECTION( '', ( -1.00000000000000, 2.99090254478760E-017, 0.000000000000000 ) );
#393 = DIRECTION( '', ( 0.000000000000000, 0.000000000000000, -1.00000000000000 ) );
#394 = DIRECTION( '', ( -1.00000000000000, 2.99090254478760E-017, 0.000000000000000 ) );
#395 = DIRECTION( '', ( 0.000000000000000, 0.000000000000000, -1.00000000000000 ) );
#396 = DIRECTION( '', ( 0.000000000000000, 1.00000000000000, 0.000000000000000 ) );
#397 = DIRECTION( '', ( 0.000000000000000, 1.00000000000000, 0.000000000000000 ) );
#398 = CARTESIAN_POINT( '', ( -312.000000000000, 5.00000000000000, 76.0000000000000 ) );
#399 = DIRECTION( '', ( 0.000000000000000, 0.000000000000000, -1.00000000000000 ) );
#400 = DIRECTION( '', ( 0.000000000000000, -1.00000000000000, 0.000000000000000 ) );
#401 = CARTESIAN_POINT( '', ( -265.000000000000, 5.00000000000000, 76.0000000000000 ) );
#402 = DIRECTION( '', ( 0.000000000000000, 0.000000000000000, -1.00000000000000 ) );
#403 = DIRECTION( '', ( 0.000000000000000, -1.00000000000000, 0.000000000000000 ) );
#404 = DIRECTION( '', ( 0.000000000000000, -1.00000000000000, 0.000000000000000 ) );
#405 = DIRECTION( '', ( 0.000000000000000, -1.00000000000000, 0.000000000000000 ) );
#406 = CARTESIAN_POINT( '', ( -312.000000000000, 5.00000000000000, 0.000000000000000 ) );
#407 = DIRECTION( '', ( 0.000000000000000, 0.000000000000000, 1.00000000000000 ) );
#408 = DIRECTION( '', ( 1.00000000000000, 0.000000000000000, 0.000000000000000 ) );
#409 = CARTESIAN_POINT( '', ( -265.000000000000, 5.00000000000000, 0.000000000000000 ) );
#410 = DIRECTION( '', ( 0.000000000000000, 0.000000000000000, 1.00000000000000 ) );
#411 = DIRECTION( '', ( 1.00000000000000, 0.000000000000000, 0.000000000000000 ) );
ENDSEC;
END-ISO-10303-21;
