ISO-10303-21;
HEADER;
FILE_DESCRIPTION( ( 'Unknown' ), '1' );
FILE_NAME( 'M:/Piezas_3D/Placas_Par/G2/OS_G2_346x696x096_.stp', 'Unknown', ( 'Unknown' ), ( 'Unknown' ), 'PSStep 16.0.42', 'Unknown', '  ' );
FILE_SCHEMA( ( 'AUTOMOTIVE_DESIGN { 1 0 10303 214 1 1 1 1 }' ) );
ENDSEC;
DATA;
#1 = MECHANICAL_DESIGN_GEOMETRIC_PRESENTATION_REPRESENTATION( ' ', ( #10, #11, #12, #13, #14, #15, #16, #17, #18, #19 ), #6 );
#2 = PRODUCT_DEFINITION_CONTEXT( '', #20, 'design' );
#3 = APPLICATION_PROTOCOL_DEFINITION( 'international standard', 'automotive_design', 2001, #20 );
#4 = PRODUCT_CATEGORY_RELATIONSHIP( 'NONE', 'NONE', #21, #22 );
#5 = SHAPE_DEFINITION_REPRESENTATION( #23, #24 );
#6 =  ( GEOMETRIC_REPRESENTATION_CONTEXT( 3 )GLOBAL_UNCERTAINTY_ASSIGNED_CONTEXT( ( #27 ) )GLOBAL_UNIT_ASSIGNED_CONTEXT( ( #29, #30, #31 ) )REPRESENTATION_CONTEXT( 'NONE', 'WORKSPACE' ) );
#10 = STYLED_ITEM( '', ( #33 ), #34 );
#11 = STYLED_ITEM( '', ( #35 ), #36 );
#12 = STYLED_ITEM( '', ( #37 ), #38 );
#13 = STYLED_ITEM( '', ( #39 ), #40 );
#14 = STYLED_ITEM( '', ( #41 ), #42 );
#15 = STYLED_ITEM( '', ( #43 ), #44 );
#16 = STYLED_ITEM( '', ( #45 ), #46 );
#17 = STYLED_ITEM( '', ( #47 ), #48 );
#18 = STYLED_ITEM( '', ( #49 ), #50 );
#19 = STYLED_ITEM( '', ( #51 ), #52 );
#20 = APPLICATION_CONTEXT( 'core data for automotive mechanical design processes' );
#21 = PRODUCT_CATEGORY( 'part', 'NONE' );
#22 = PRODUCT_RELATED_PRODUCT_CATEGORY( 'detail', ' ', ( #53 ) );
#23 = PRODUCT_DEFINITION_SHAPE( 'NONE', 'NONE', #54 );
#24 = ADVANCED_BREP_SHAPE_REPRESENTATION( '1', ( #55, #56 ), #6 );
#27 = UNCERTAINTY_MEASURE_WITH_UNIT( LENGTH_MEASURE( 0.00100000000000000 ), #29, '', '' );
#29 =  ( CONVERSION_BASED_UNIT( 'MILLIMETRE', #59 )LENGTH_UNIT(  )NAMED_UNIT( #62 ) );
#30 =  ( NAMED_UNIT( #64 )PLANE_ANGLE_UNIT(  )SI_UNIT( $, .RADIAN. ) );
#31 =  ( NAMED_UNIT( #64 )SI_UNIT( $, .STERADIAN. )SOLID_ANGLE_UNIT(  ) );
#33 = PRESENTATION_STYLE_ASSIGNMENT( ( #70 ) );
#34 = ADVANCED_FACE( '', ( #71, #72 ), #73, .F. );
#35 = PRESENTATION_STYLE_ASSIGNMENT( ( #74 ) );
#36 = ADVANCED_FACE( '', ( #75, #76 ), #77, .F. );
#37 = PRESENTATION_STYLE_ASSIGNMENT( ( #78 ) );
#38 = ADVANCED_FACE( '', ( #79, #80 ), #81, .F. );
#39 = PRESENTATION_STYLE_ASSIGNMENT( ( #82 ) );
#40 = ADVANCED_FACE( '', ( #83 ), #84, .F. );
#41 = PRESENTATION_STYLE_ASSIGNMENT( ( #85 ) );
#42 = ADVANCED_FACE( '', ( #86, #87 ), #88, .F. );
#43 = PRESENTATION_STYLE_ASSIGNMENT( ( #89 ) );
#44 = ADVANCED_FACE( '', ( #90, #91, #92, #93, #94 ), #95, .F. );
#45 = PRESENTATION_STYLE_ASSIGNMENT( ( #96 ) );
#46 = ADVANCED_FACE( '', ( #97 ), #98, .F. );
#47 = PRESENTATION_STYLE_ASSIGNMENT( ( #99 ) );
#48 = ADVANCED_FACE( '', ( #100, #101, #102, #103, #104 ), #105, .T. );
#49 = PRESENTATION_STYLE_ASSIGNMENT( ( #106 ) );
#50 = ADVANCED_FACE( '', ( #107 ), #108, .F. );
#51 = PRESENTATION_STYLE_ASSIGNMENT( ( #109 ) );
#52 = ADVANCED_FACE( '', ( #110 ), #111, .F. );
#53 = PRODUCT( '1', '1', 'PART-1-DESC', ( #112 ) );
#54 = PRODUCT_DEFINITION( 'NONE', 'NONE', #113, #2 );
#55 = MANIFOLD_SOLID_BREP( '1', #114 );
#56 = AXIS2_PLACEMENT_3D( '', #115, #116, #117 );
#59 = LENGTH_MEASURE_WITH_UNIT( LENGTH_MEASURE( 1.00000000000000 ), #118 );
#62 = DIMENSIONAL_EXPONENTS( 1.00000000000000, 0.000000000000000, 0.000000000000000, 0.000000000000000, 0.000000000000000, 0.000000000000000, 0.000000000000000 );
#64 = DIMENSIONAL_EXPONENTS( 0.000000000000000, 0.000000000000000, 0.000000000000000, 0.000000000000000, 0.000000000000000, 0.000000000000000, 0.000000000000000 );
#70 = SURFACE_STYLE_USAGE( .BOTH., #119 );
#71 = FACE_OUTER_BOUND( '', #120, .T. );
#72 = FACE_OUTER_BOUND( '', #121, .T. );
#73 = CYLINDRICAL_SURFACE( '', #122, 9.00000000000000 );
#74 = SURFACE_STYLE_USAGE( .BOTH., #123 );
#75 = FACE_OUTER_BOUND( '', #124, .T. );
#76 = FACE_OUTER_BOUND( '', #125, .T. );
#77 = CYLINDRICAL_SURFACE( '', #126, 21.0000000000000 );
#78 = SURFACE_STYLE_USAGE( .BOTH., #127 );
#79 = FACE_OUTER_BOUND( '', #128, .T. );
#80 = FACE_OUTER_BOUND( '', #129, .T. );
#81 = CYLINDRICAL_SURFACE( '', #130, 9.00000000000000 );
#82 = SURFACE_STYLE_USAGE( .BOTH., #131 );
#83 = FACE_OUTER_BOUND( '', #132, .T. );
#84 = PLANE( '', #133 );
#85 = SURFACE_STYLE_USAGE( .BOTH., #134 );
#86 = FACE_OUTER_BOUND( '', #135, .T. );
#87 = FACE_OUTER_BOUND( '', #136, .T. );
#88 = CYLINDRICAL_SURFACE( '', #137, 21.0000000000000 );
#89 = SURFACE_STYLE_USAGE( .BOTH., #138 );
#90 = FACE_BOUND( '', #139, .T. );
#91 = FACE_BOUND( '', #140, .T. );
#92 = FACE_BOUND( '', #141, .T. );
#93 = FACE_BOUND( '', #142, .T. );
#94 = FACE_OUTER_BOUND( '', #143, .T. );
#95 = PLANE( '', #144 );
#96 = SURFACE_STYLE_USAGE( .BOTH., #145 );
#97 = FACE_OUTER_BOUND( '', #146, .T. );
#98 = PLANE( '', #147 );
#99 = SURFACE_STYLE_USAGE( .BOTH., #148 );
#100 = FACE_BOUND( '', #149, .T. );
#101 = FACE_BOUND( '', #150, .T. );
#102 = FACE_BOUND( '', #151, .T. );
#103 = FACE_BOUND( '', #152, .T. );
#104 = FACE_OUTER_BOUND( '', #153, .T. );
#105 = PLANE( '', #154 );
#106 = SURFACE_STYLE_USAGE( .BOTH., #155 );
#107 = FACE_OUTER_BOUND( '', #156, .T. );
#108 = PLANE( '', #157 );
#109 = SURFACE_STYLE_USAGE( .BOTH., #158 );
#110 = FACE_OUTER_BOUND( '', #159, .T. );
#111 = PLANE( '', #160 );
#112 = PRODUCT_CONTEXT( '', #20, 'mechanical' );
#113 = PRODUCT_DEFINITION_FORMATION_WITH_SPECIFIED_SOURCE( ' ', 'NONE', #53, .NOT_KNOWN. );
#114 = CLOSED_SHELL( '', ( #34, #44, #52, #48, #40, #50, #46, #38, #42, #36 ) );
#115 = CARTESIAN_POINT( '', ( 0.000000000000000, 0.000000000000000, 0.000000000000000 ) );
#116 = DIRECTION( '', ( 0.000000000000000, 0.000000000000000, 1.00000000000000 ) );
#117 = DIRECTION( '', ( 1.00000000000000, 0.000000000000000, 0.000000000000000 ) );
#118 =  ( LENGTH_UNIT(  )NAMED_UNIT( #62 )SI_UNIT( .MILLI., .METRE. ) );
#119 = SURFACE_SIDE_STYLE( '', ( #162 ) );
#120 = EDGE_LOOP( '', ( #163 ) );
#121 = EDGE_LOOP( '', ( #164 ) );
#122 = AXIS2_PLACEMENT_3D( '', #165, #166, #167 );
#123 = SURFACE_SIDE_STYLE( '', ( #168 ) );
#124 = EDGE_LOOP( '', ( #169 ) );
#125 = EDGE_LOOP( '', ( #170 ) );
#126 = AXIS2_PLACEMENT_3D( '', #171, #172, #173 );
#127 = SURFACE_SIDE_STYLE( '', ( #174 ) );
#128 = EDGE_LOOP( '', ( #175 ) );
#129 = EDGE_LOOP( '', ( #176 ) );
#130 = AXIS2_PLACEMENT_3D( '', #177, #178, #179 );
#131 = SURFACE_SIDE_STYLE( '', ( #180 ) );
#132 = EDGE_LOOP( '', ( #181, #182, #183, #184 ) );
#133 = AXIS2_PLACEMENT_3D( '', #185, #186, #187 );
#134 = SURFACE_SIDE_STYLE( '', ( #188 ) );
#135 = EDGE_LOOP( '', ( #189 ) );
#136 = EDGE_LOOP( '', ( #190 ) );
#137 = AXIS2_PLACEMENT_3D( '', #191, #192, #193 );
#138 = SURFACE_SIDE_STYLE( '', ( #194 ) );
#139 = EDGE_LOOP( '', ( #195 ) );
#140 = EDGE_LOOP( '', ( #196 ) );
#141 = EDGE_LOOP( '', ( #197 ) );
#142 = EDGE_LOOP( '', ( #198 ) );
#143 = EDGE_LOOP( '', ( #199, #200, #201, #202 ) );
#144 = AXIS2_PLACEMENT_3D( '', #203, #204, #205 );
#145 = SURFACE_SIDE_STYLE( '', ( #206 ) );
#146 = EDGE_LOOP( '', ( #207, #208, #209, #210 ) );
#147 = AXIS2_PLACEMENT_3D( '', #211, #212, #213 );
#148 = SURFACE_SIDE_STYLE( '', ( #214 ) );
#149 = EDGE_LOOP( '', ( #215 ) );
#150 = EDGE_LOOP( '', ( #216 ) );
#151 = EDGE_LOOP( '', ( #217 ) );
#152 = EDGE_LOOP( '', ( #218 ) );
#153 = EDGE_LOOP( '', ( #219, #220, #221, #222 ) );
#154 = AXIS2_PLACEMENT_3D( '', #223, #224, #225 );
#155 = SURFACE_SIDE_STYLE( '', ( #226 ) );
#156 = EDGE_LOOP( '', ( #227, #228, #229, #230 ) );
#157 = AXIS2_PLACEMENT_3D( '', #231, #232, #233 );
#158 = SURFACE_SIDE_STYLE( '', ( #234 ) );
#159 = EDGE_LOOP( '', ( #235, #236, #237, #238 ) );
#160 = AXIS2_PLACEMENT_3D( '', #239, #240, #241 );
#162 = SURFACE_STYLE_FILL_AREA( #242 );
#163 = ORIENTED_EDGE( '', *, *, #243, .F. );
#164 = ORIENTED_EDGE( '', *, *, #244, .F. );
#165 = CARTESIAN_POINT( '', ( -265.000000000000, 5.00000000000000, 96.0000000000000 ) );
#166 = DIRECTION( '', ( -0.000000000000000, -0.000000000000000, 1.00000000000000 ) );
#167 = DIRECTION( '', ( 0.000000000000000, -1.00000000000000, 0.000000000000000 ) );
#168 = SURFACE_STYLE_FILL_AREA( #245 );
#169 = ORIENTED_EDGE( '', *, *, #246, .F. );
#170 = ORIENTED_EDGE( '', *, *, #247, .F. );
#171 = CARTESIAN_POINT( '', ( -312.000000000000, 5.00000000000000, 96.0000000000000 ) );
#172 = DIRECTION( '', ( -0.000000000000000, -0.000000000000000, 1.00000000000000 ) );
#173 = DIRECTION( '', ( 0.000000000000000, -1.00000000000000, 0.000000000000000 ) );
#174 = SURFACE_STYLE_FILL_AREA( #248 );
#175 = ORIENTED_EDGE( '', *, *, #249, .F. );
#176 = ORIENTED_EDGE( '', *, *, #250, .F. );
#177 = CARTESIAN_POINT( '', ( 265.000000000000, 5.00000000000007, 96.0000000000000 ) );
#178 = DIRECTION( '', ( -0.000000000000000, -0.000000000000000, 1.00000000000000 ) );
#179 = DIRECTION( '', ( 0.000000000000000, -1.00000000000000, 0.000000000000000 ) );
#180 = SURFACE_STYLE_FILL_AREA( #251 );
#181 = ORIENTED_EDGE( '', *, *, #252, .T. );
#182 = ORIENTED_EDGE( '', *, *, #253, .F. );
#183 = ORIENTED_EDGE( '', *, *, #254, .F. );
#184 = ORIENTED_EDGE( '', *, *, #255, .T. );
#185 = CARTESIAN_POINT( '', ( -348.000000000000, -31.0000000000000, 96.0000000000000 ) );
#186 = DIRECTION( '', ( 5.48332133211060E-017, 1.00000000000000, 0.000000000000000 ) );
#187 = DIRECTION( '', ( -1.00000000000000, 5.48332133211060E-017, 0.000000000000000 ) );
#188 = SURFACE_STYLE_FILL_AREA( #256 );
#189 = ORIENTED_EDGE( '', *, *, #257, .F. );
#190 = ORIENTED_EDGE( '', *, *, #258, .F. );
#191 = CARTESIAN_POINT( '', ( 312.000000000000, 5.00000000000000, 96.0000000000000 ) );
#192 = DIRECTION( '', ( -0.000000000000000, -0.000000000000000, 1.00000000000000 ) );
#193 = DIRECTION( '', ( 0.000000000000000, -1.00000000000000, 0.000000000000000 ) );
#194 = SURFACE_STYLE_FILL_AREA( #259 );
#195 = ORIENTED_EDGE( '', *, *, #247, .T. );
#196 = ORIENTED_EDGE( '', *, *, #258, .T. );
#197 = ORIENTED_EDGE( '', *, *, #250, .T. );
#198 = ORIENTED_EDGE( '', *, *, #244, .T. );
#199 = ORIENTED_EDGE( '', *, *, #260, .F. );
#200 = ORIENTED_EDGE( '', *, *, #261, .F. );
#201 = ORIENTED_EDGE( '', *, *, #252, .F. );
#202 = ORIENTED_EDGE( '', *, *, #262, .F. );
#203 = CARTESIAN_POINT( '', ( -348.000000000000, 31.0000000000000, 0.000000000000000 ) );
#204 = DIRECTION( '', ( 0.000000000000000, 0.000000000000000, 1.00000000000000 ) );
#205 = DIRECTION( '', ( 1.00000000000000, 0.000000000000000, 0.000000000000000 ) );
#206 = SURFACE_STYLE_FILL_AREA( #263 );
#207 = ORIENTED_EDGE( '', *, *, #262, .T. );
#208 = ORIENTED_EDGE( '', *, *, #255, .F. );
#209 = ORIENTED_EDGE( '', *, *, #264, .F. );
#210 = ORIENTED_EDGE( '', *, *, #265, .T. );
#211 = CARTESIAN_POINT( '', ( -348.000000000000, 31.0000000000000, 96.0000000000000 ) );
#212 = DIRECTION( '', ( 1.00000000000000, 0.000000000000000, 0.000000000000000 ) );
#213 = DIRECTION( '', ( 0.000000000000000, 0.000000000000000, -1.00000000000000 ) );
#214 = SURFACE_STYLE_FILL_AREA( #266 );
#215 = ORIENTED_EDGE( '', *, *, #246, .T. );
#216 = ORIENTED_EDGE( '', *, *, #257, .T. );
#217 = ORIENTED_EDGE( '', *, *, #249, .T. );
#218 = ORIENTED_EDGE( '', *, *, #243, .T. );
#219 = ORIENTED_EDGE( '', *, *, #267, .T. );
#220 = ORIENTED_EDGE( '', *, *, #264, .T. );
#221 = ORIENTED_EDGE( '', *, *, #254, .T. );
#222 = ORIENTED_EDGE( '', *, *, #268, .T. );
#223 = CARTESIAN_POINT( '', ( -348.000000000000, 31.0000000000000, 96.0000000000000 ) );
#224 = DIRECTION( '', ( 0.000000000000000, 0.000000000000000, 1.00000000000000 ) );
#225 = DIRECTION( '', ( 1.00000000000000, 0.000000000000000, 0.000000000000000 ) );
#226 = SURFACE_STYLE_FILL_AREA( #269 );
#227 = ORIENTED_EDGE( '', *, *, #260, .T. );
#228 = ORIENTED_EDGE( '', *, *, #265, .F. );
#229 = ORIENTED_EDGE( '', *, *, #267, .F. );
#230 = ORIENTED_EDGE( '', *, *, #270, .T. );
#231 = CARTESIAN_POINT( '', ( 348.000000000000, 31.0000000000000, 96.0000000000000 ) );
#232 = DIRECTION( '', ( -2.99090254478760E-017, -1.00000000000000, 0.000000000000000 ) );
#233 = DIRECTION( '', ( 1.00000000000000, -2.99090254478760E-017, 0.000000000000000 ) );
#234 = SURFACE_STYLE_FILL_AREA( #271 );
#235 = ORIENTED_EDGE( '', *, *, #261, .T. );
#236 = ORIENTED_EDGE( '', *, *, #270, .F. );
#237 = ORIENTED_EDGE( '', *, *, #268, .F. );
#238 = ORIENTED_EDGE( '', *, *, #253, .T. );
#239 = CARTESIAN_POINT( '', ( 348.000000000000, -31.0000000000000, 96.0000000000000 ) );
#240 = DIRECTION( '', ( -1.00000000000000, 0.000000000000000, 0.000000000000000 ) );
#241 = DIRECTION( '', ( 0.000000000000000, 0.000000000000000, 1.00000000000000 ) );
#242 = FILL_AREA_STYLE( '', ( #272 ) );
#243 = EDGE_CURVE( '', #273, #273, #274, .T. );
#244 = EDGE_CURVE( '', #275, #275, #276, .T. );
#245 = FILL_AREA_STYLE( '', ( #277 ) );
#246 = EDGE_CURVE( '', #278, #278, #279, .T. );
#247 = EDGE_CURVE( '', #280, #280, #281, .T. );
#248 = FILL_AREA_STYLE( '', ( #282 ) );
#249 = EDGE_CURVE( '', #283, #283, #284, .T. );
#250 = EDGE_CURVE( '', #285, #285, #286, .T. );
#251 = FILL_AREA_STYLE( '', ( #287 ) );
#252 = EDGE_CURVE( '', #288, #289, #290, .T. );
#253 = EDGE_CURVE( '', #291, #289, #292, .T. );
#254 = EDGE_CURVE( '', #293, #291, #294, .T. );
#255 = EDGE_CURVE( '', #293, #288, #295, .T. );
#256 = FILL_AREA_STYLE( '', ( #296 ) );
#257 = EDGE_CURVE( '', #297, #297, #298, .T. );
#258 = EDGE_CURVE( '', #299, #299, #300, .T. );
#259 = FILL_AREA_STYLE( '', ( #301 ) );
#260 = EDGE_CURVE( '', #302, #303, #304, .T. );
#261 = EDGE_CURVE( '', #289, #302, #305, .T. );
#262 = EDGE_CURVE( '', #303, #288, #306, .T. );
#263 = FILL_AREA_STYLE( '', ( #307 ) );
#264 = EDGE_CURVE( '', #308, #293, #309, .T. );
#265 = EDGE_CURVE( '', #308, #303, #310, .T. );
#266 = FILL_AREA_STYLE( '', ( #311 ) );
#267 = EDGE_CURVE( '', #312, #308, #313, .T. );
#268 = EDGE_CURVE( '', #291, #312, #314, .T. );
#269 = FILL_AREA_STYLE( '', ( #315 ) );
#270 = EDGE_CURVE( '', #312, #302, #316, .T. );
#271 = FILL_AREA_STYLE( '', ( #317 ) );
#272 = FILL_AREA_STYLE_COLOUR( '', #318 );
#273 = VERTEX_POINT( '', #319 );
#274 = CIRCLE( '', #320, 9.00000000000000 );
#275 = VERTEX_POINT( '', #321 );
#276 = CIRCLE( '', #322, 9.00000000000000 );
#277 = FILL_AREA_STYLE_COLOUR( '', #323 );
#278 = VERTEX_POINT( '', #324 );
#279 = CIRCLE( '', #325, 21.0000000000000 );
#280 = VERTEX_POINT( '', #326 );
#281 = CIRCLE( '', #327, 21.0000000000000 );
#282 = FILL_AREA_STYLE_COLOUR( '', #328 );
#283 = VERTEX_POINT( '', #329 );
#284 = CIRCLE( '', #330, 9.00000000000000 );
#285 = VERTEX_POINT( '', #331 );
#286 = CIRCLE( '', #332, 9.00000000000000 );
#287 = FILL_AREA_STYLE_COLOUR( '', #333 );
#288 = VERTEX_POINT( '', #334 );
#289 = VERTEX_POINT( '', #335 );
#290 = LINE( '', #336, #337 );
#291 = VERTEX_POINT( '', #338 );
#292 = LINE( '', #339, #340 );
#293 = VERTEX_POINT( '', #341 );
#294 = LINE( '', #342, #343 );
#295 = LINE( '', #344, #345 );
#296 = FILL_AREA_STYLE_COLOUR( '', #346 );
#297 = VERTEX_POINT( '', #347 );
#298 = CIRCLE( '', #348, 21.0000000000000 );
#299 = VERTEX_POINT( '', #349 );
#300 = CIRCLE( '', #350, 21.0000000000000 );
#301 = FILL_AREA_STYLE_COLOUR( '', #351 );
#302 = VERTEX_POINT( '', #352 );
#303 = VERTEX_POINT( '', #353 );
#304 = LINE( '', #354, #355 );
#305 = LINE( '', #356, #357 );
#306 = LINE( '', #358, #359 );
#307 = FILL_AREA_STYLE_COLOUR( '', #360 );
#308 = VERTEX_POINT( '', #361 );
#309 = LINE( '', #362, #363 );
#310 = LINE( '', #364, #365 );
#311 = FILL_AREA_STYLE_COLOUR( '', #366 );
#312 = VERTEX_POINT( '', #367 );
#313 = LINE( '', #368, #369 );
#314 = LINE( '', #370, #371 );
#315 = FILL_AREA_STYLE_COLOUR( '', #372 );
#316 = LINE( '', #373, #374 );
#317 = FILL_AREA_STYLE_COLOUR( '', #375 );
#318 = COLOUR_RGB( '', 0.752941191196442, 0.752941191196442, 0.752941191196442 );
#319 = CARTESIAN_POINT( '', ( -265.000000000000, -4.00000000000000, 96.0000000000000 ) );
#320 = AXIS2_PLACEMENT_3D( '', #376, #377, #378 );
#321 = CARTESIAN_POINT( '', ( -256.000000000000, 5.00000000000000, 0.000000000000000 ) );
#322 = AXIS2_PLACEMENT_3D( '', #379, #380, #381 );
#323 = COLOUR_RGB( '', 0.752941191196442, 0.752941191196442, 0.752941191196442 );
#324 = CARTESIAN_POINT( '', ( -312.000000000000, -16.0000000000000, 96.0000000000000 ) );
#325 = AXIS2_PLACEMENT_3D( '', #382, #383, #384 );
#326 = CARTESIAN_POINT( '', ( -291.000000000000, 5.00000000000000, 0.000000000000000 ) );
#327 = AXIS2_PLACEMENT_3D( '', #385, #386, #387 );
#328 = COLOUR_RGB( '', 0.752941191196442, 0.752941191196442, 0.752941191196442 );
#329 = CARTESIAN_POINT( '', ( 265.000000000000, -3.99999999999993, 96.0000000000000 ) );
#330 = AXIS2_PLACEMENT_3D( '', #388, #389, #390 );
#331 = CARTESIAN_POINT( '', ( 274.000000000000, 5.00000000000007, 0.000000000000000 ) );
#332 = AXIS2_PLACEMENT_3D( '', #391, #392, #393 );
#333 = COLOUR_RGB( '', 0.752941191196442, 0.752941191196442, 0.752941191196442 );
#334 = CARTESIAN_POINT( '', ( -348.000000000000, -31.0000000000000, 0.000000000000000 ) );
#335 = CARTESIAN_POINT( '', ( 348.000000000000, -31.0000000000000, 0.000000000000000 ) );
#336 = CARTESIAN_POINT( '', ( -348.000000000000, -31.0000000000000, 0.000000000000000 ) );
#337 = VECTOR( '', #394, 1000.00000000000 );
#338 = CARTESIAN_POINT( '', ( 348.000000000000, -31.0000000000000, 96.0000000000000 ) );
#339 = CARTESIAN_POINT( '', ( 348.000000000000, -31.0000000000000, 96.0000000000000 ) );
#340 = VECTOR( '', #395, 1000.00000000000 );
#341 = CARTESIAN_POINT( '', ( -348.000000000000, -31.0000000000000, 96.0000000000000 ) );
#342 = CARTESIAN_POINT( '', ( -348.000000000000, -31.0000000000000, 96.0000000000000 ) );
#343 = VECTOR( '', #396, 1000.00000000000 );
#344 = CARTESIAN_POINT( '', ( -348.000000000000, -31.0000000000000, 96.0000000000000 ) );
#345 = VECTOR( '', #397, 1000.00000000000 );
#346 = COLOUR_RGB( '', 0.752941191196442, 0.752941191196442, 0.752941191196442 );
#347 = CARTESIAN_POINT( '', ( 312.000000000000, -16.0000000000000, 96.0000000000000 ) );
#348 = AXIS2_PLACEMENT_3D( '', #398, #399, #400 );
#349 = CARTESIAN_POINT( '', ( 333.000000000000, 5.00000000000000, 0.000000000000000 ) );
#350 = AXIS2_PLACEMENT_3D( '', #401, #402, #403 );
#351 = COLOUR_RGB( '', 0.752941191196442, 0.752941191196442, 0.752941191196442 );
#352 = CARTESIAN_POINT( '', ( 348.000000000000, 31.0000000000000, 0.000000000000000 ) );
#353 = CARTESIAN_POINT( '', ( -348.000000000000, 31.0000000000000, 0.000000000000000 ) );
#354 = CARTESIAN_POINT( '', ( 348.000000000000, 31.0000000000000, 0.000000000000000 ) );
#355 = VECTOR( '', #404, 1000.00000000000 );
#356 = CARTESIAN_POINT( '', ( 348.000000000000, -31.0000000000000, 0.000000000000000 ) );
#357 = VECTOR( '', #405, 1000.00000000000 );
#358 = CARTESIAN_POINT( '', ( -348.000000000000, 31.0000000000000, 0.000000000000000 ) );
#359 = VECTOR( '', #406, 1000.00000000000 );
#360 = COLOUR_RGB( '', 0.752941191196442, 0.752941191196442, 0.752941191196442 );
#361 = CARTESIAN_POINT( '', ( -348.000000000000, 31.0000000000000, 96.0000000000000 ) );
#362 = CARTESIAN_POINT( '', ( -348.000000000000, 31.0000000000000, 96.0000000000000 ) );
#363 = VECTOR( '', #407, 1000.00000000000 );
#364 = CARTESIAN_POINT( '', ( -348.000000000000, 31.0000000000000, 96.0000000000000 ) );
#365 = VECTOR( '', #408, 1000.00000000000 );
#366 = COLOUR_RGB( '', 0.752941191196442, 0.752941191196442, 0.752941191196442 );
#367 = CARTESIAN_POINT( '', ( 348.000000000000, 31.0000000000000, 96.0000000000000 ) );
#368 = CARTESIAN_POINT( '', ( 348.000000000000, 31.0000000000000, 96.0000000000000 ) );
#369 = VECTOR( '', #409, 1000.00000000000 );
#370 = CARTESIAN_POINT( '', ( 348.000000000000, -31.0000000000000, 96.0000000000000 ) );
#371 = VECTOR( '', #410, 1000.00000000000 );
#372 = COLOUR_RGB( '', 0.752941191196442, 0.752941191196442, 0.752941191196442 );
#373 = CARTESIAN_POINT( '', ( 348.000000000000, 31.0000000000000, 96.0000000000000 ) );
#374 = VECTOR( '', #411, 1000.00000000000 );
#375 = COLOUR_RGB( '', 0.752941191196442, 0.752941191196442, 0.752941191196442 );
#376 = CARTESIAN_POINT( '', ( -265.000000000000, 5.00000000000000, 96.0000000000000 ) );
#377 = DIRECTION( '', ( 0.000000000000000, 0.000000000000000, -1.00000000000000 ) );
#378 = DIRECTION( '', ( 0.000000000000000, -1.00000000000000, 0.000000000000000 ) );
#379 = CARTESIAN_POINT( '', ( -265.000000000000, 5.00000000000000, 0.000000000000000 ) );
#380 = DIRECTION( '', ( 0.000000000000000, 0.000000000000000, 1.00000000000000 ) );
#381 = DIRECTION( '', ( 1.00000000000000, 0.000000000000000, 0.000000000000000 ) );
#382 = CARTESIAN_POINT( '', ( -312.000000000000, 5.00000000000000, 96.0000000000000 ) );
#383 = DIRECTION( '', ( 0.000000000000000, 0.000000000000000, -1.00000000000000 ) );
#384 = DIRECTION( '', ( 0.000000000000000, -1.00000000000000, 0.000000000000000 ) );
#385 = CARTESIAN_POINT( '', ( -312.000000000000, 5.00000000000000, 0.000000000000000 ) );
#386 = DIRECTION( '', ( 0.000000000000000, 0.000000000000000, 1.00000000000000 ) );
#387 = DIRECTION( '', ( 1.00000000000000, 0.000000000000000, 0.000000000000000 ) );
#388 = CARTESIAN_POINT( '', ( 265.000000000000, 5.00000000000007, 96.0000000000000 ) );
#389 = DIRECTION( '', ( 0.000000000000000, 0.000000000000000, -1.00000000000000 ) );
#390 = DIRECTION( '', ( 0.000000000000000, -1.00000000000000, 0.000000000000000 ) );
#391 = CARTESIAN_POINT( '', ( 265.000000000000, 5.00000000000007, 0.000000000000000 ) );
#392 = DIRECTION( '', ( 0.000000000000000, 0.000000000000000, 1.00000000000000 ) );
#393 = DIRECTION( '', ( 1.00000000000000, 0.000000000000000, 0.000000000000000 ) );
#394 = DIRECTION( '', ( 1.00000000000000, -5.48332133211060E-017, 0.000000000000000 ) );
#395 = DIRECTION( '', ( 0.000000000000000, 0.000000000000000, -1.00000000000000 ) );
#396 = DIRECTION( '', ( 1.00000000000000, -5.48332133211060E-017, 0.000000000000000 ) );
#397 = DIRECTION( '', ( 0.000000000000000, 0.000000000000000, -1.00000000000000 ) );
#398 = CARTESIAN_POINT( '', ( 312.000000000000, 5.00000000000000, 96.0000000000000 ) );
#399 = DIRECTION( '', ( 0.000000000000000, 0.000000000000000, -1.00000000000000 ) );
#400 = DIRECTION( '', ( 0.000000000000000, -1.00000000000000, 0.000000000000000 ) );
#401 = CARTESIAN_POINT( '', ( 312.000000000000, 5.00000000000000, 0.000000000000000 ) );
#402 = DIRECTION( '', ( 0.000000000000000, 0.000000000000000, 1.00000000000000 ) );
#403 = DIRECTION( '', ( 1.00000000000000, 0.000000000000000, 0.000000000000000 ) );
#404 = DIRECTION( '', ( -1.00000000000000, 2.99090254478760E-017, 0.000000000000000 ) );
#405 = DIRECTION( '', ( 0.000000000000000, 1.00000000000000, 0.000000000000000 ) );
#406 = DIRECTION( '', ( 0.000000000000000, -1.00000000000000, 0.000000000000000 ) );
#407 = DIRECTION( '', ( 0.000000000000000, -1.00000000000000, 0.000000000000000 ) );
#408 = DIRECTION( '', ( 0.000000000000000, 0.000000000000000, -1.00000000000000 ) );
#409 = DIRECTION( '', ( -1.00000000000000, 2.99090254478760E-017, 0.000000000000000 ) );
#410 = DIRECTION( '', ( 0.000000000000000, 1.00000000000000, 0.000000000000000 ) );
#411 = DIRECTION( '', ( 0.000000000000000, 0.000000000000000, -1.00000000000000 ) );
ENDSEC;
END-ISO-10303-21;
