ISO-10303-21;
HEADER;
FILE_DESCRIPTION( ( 'Unknown' ), '1' );
FILE_NAME( 'M:/Piezas_3D/Placas_Par/G2/OS_G2_396x596x076_.stp', 'Unknown', ( 'Unknown' ), ( 'Unknown' ), 'PSStep 16.0.42', 'Unknown', '  ' );
FILE_SCHEMA( ( 'AUTOMOTIVE_DESIGN { 1 0 10303 214 1 1 1 1 }' ) );
ENDSEC;
DATA;
#1 = MECHANICAL_DESIGN_GEOMETRIC_PRESENTATION_REPRESENTATION( ' ', ( #10, #11, #12, #13, #14, #15, #16, #17, #18, #19 ), #6 );
#2 = PRODUCT_DEFINITION_CONTEXT( '', #20, 'design' );
#3 = APPLICATION_PROTOCOL_DEFINITION( 'international standard', 'automotive_design', 2001, #20 );
#4 = PRODUCT_CATEGORY_RELATIONSHIP( 'NONE', 'NONE', #21, #22 );
#5 = SHAPE_DEFINITION_REPRESENTATION( #23, #24 );
#6 =  ( GEOMETRIC_REPRESENTATION_CONTEXT( 3 )GLOBAL_UNCERTAINTY_ASSIGNED_CONTEXT( ( #27 ) )GLOBAL_UNIT_ASSIGNED_CONTEXT( ( #29, #30, #31 ) )REPRESENTATION_CONTEXT( 'NONE', 'WORKSPACE' ) );
#10 = STYLED_ITEM( '', ( #33 ), #34 );
#11 = STYLED_ITEM( '', ( #35 ), #36 );
#12 = STYLED_ITEM( '', ( #37 ), #38 );
#13 = STYLED_ITEM( '', ( #39 ), #40 );
#14 = STYLED_ITEM( '', ( #41 ), #42 );
#15 = STYLED_ITEM( '', ( #43 ), #44 );
#16 = STYLED_ITEM( '', ( #45 ), #46 );
#17 = STYLED_ITEM( '', ( #47 ), #48 );
#18 = STYLED_ITEM( '', ( #49 ), #50 );
#19 = STYLED_ITEM( '', ( #51 ), #52 );
#20 = APPLICATION_CONTEXT( 'core data for automotive mechanical design processes' );
#21 = PRODUCT_CATEGORY( 'part', 'NONE' );
#22 = PRODUCT_RELATED_PRODUCT_CATEGORY( 'detail', ' ', ( #53 ) );
#23 = PRODUCT_DEFINITION_SHAPE( 'NONE', 'NONE', #54 );
#24 = ADVANCED_BREP_SHAPE_REPRESENTATION( '1', ( #55, #56 ), #6 );
#27 = UNCERTAINTY_MEASURE_WITH_UNIT( LENGTH_MEASURE( 0.00100000000000000 ), #29, '', '' );
#29 =  ( CONVERSION_BASED_UNIT( 'MILLIMETRE', #59 )LENGTH_UNIT(  )NAMED_UNIT( #62 ) );
#30 =  ( NAMED_UNIT( #64 )PLANE_ANGLE_UNIT(  )SI_UNIT( $, .RADIAN. ) );
#31 =  ( NAMED_UNIT( #64 )SI_UNIT( $, .STERADIAN. )SOLID_ANGLE_UNIT(  ) );
#33 = PRESENTATION_STYLE_ASSIGNMENT( ( #70 ) );
#34 = ADVANCED_FACE( '', ( #71 ), #72, .F. );
#35 = PRESENTATION_STYLE_ASSIGNMENT( ( #73 ) );
#36 = ADVANCED_FACE( '', ( #74 ), #75, .F. );
#37 = PRESENTATION_STYLE_ASSIGNMENT( ( #76 ) );
#38 = ADVANCED_FACE( '', ( #77, #78 ), #79, .F. );
#39 = PRESENTATION_STYLE_ASSIGNMENT( ( #80 ) );
#40 = ADVANCED_FACE( '', ( #81, #82 ), #83, .F. );
#41 = PRESENTATION_STYLE_ASSIGNMENT( ( #84 ) );
#42 = ADVANCED_FACE( '', ( #85, #86, #87, #88, #89 ), #90, .F. );
#43 = PRESENTATION_STYLE_ASSIGNMENT( ( #91 ) );
#44 = ADVANCED_FACE( '', ( #92 ), #93, .F. );
#45 = PRESENTATION_STYLE_ASSIGNMENT( ( #94 ) );
#46 = ADVANCED_FACE( '', ( #95 ), #96, .F. );
#47 = PRESENTATION_STYLE_ASSIGNMENT( ( #97 ) );
#48 = ADVANCED_FACE( '', ( #98, #99 ), #100, .F. );
#49 = PRESENTATION_STYLE_ASSIGNMENT( ( #101 ) );
#50 = ADVANCED_FACE( '', ( #102, #103, #104, #105, #106 ), #107, .T. );
#51 = PRESENTATION_STYLE_ASSIGNMENT( ( #108 ) );
#52 = ADVANCED_FACE( '', ( #109, #110 ), #111, .F. );
#53 = PRODUCT( '1', '1', 'PART-1-DESC', ( #112 ) );
#54 = PRODUCT_DEFINITION( 'NONE', 'NONE', #113, #2 );
#55 = MANIFOLD_SOLID_BREP( '1', #114 );
#56 = AXIS2_PLACEMENT_3D( '', #115, #116, #117 );
#59 = LENGTH_MEASURE_WITH_UNIT( LENGTH_MEASURE( 1.00000000000000 ), #118 );
#62 = DIMENSIONAL_EXPONENTS( 1.00000000000000, 0.000000000000000, 0.000000000000000, 0.000000000000000, 0.000000000000000, 0.000000000000000, 0.000000000000000 );
#64 = DIMENSIONAL_EXPONENTS( 0.000000000000000, 0.000000000000000, 0.000000000000000, 0.000000000000000, 0.000000000000000, 0.000000000000000, 0.000000000000000 );
#70 = SURFACE_STYLE_USAGE( .BOTH., #119 );
#71 = FACE_OUTER_BOUND( '', #120, .T. );
#72 = PLANE( '', #121 );
#73 = SURFACE_STYLE_USAGE( .BOTH., #122 );
#74 = FACE_OUTER_BOUND( '', #123, .T. );
#75 = PLANE( '', #124 );
#76 = SURFACE_STYLE_USAGE( .BOTH., #125 );
#77 = FACE_OUTER_BOUND( '', #126, .T. );
#78 = FACE_OUTER_BOUND( '', #127, .T. );
#79 = CYLINDRICAL_SURFACE( '', #128, 21.0000000000000 );
#80 = SURFACE_STYLE_USAGE( .BOTH., #129 );
#81 = FACE_OUTER_BOUND( '', #130, .T. );
#82 = FACE_OUTER_BOUND( '', #131, .T. );
#83 = CYLINDRICAL_SURFACE( '', #132, 9.00000000000000 );
#84 = SURFACE_STYLE_USAGE( .BOTH., #133 );
#85 = FACE_BOUND( '', #134, .T. );
#86 = FACE_BOUND( '', #135, .T. );
#87 = FACE_BOUND( '', #136, .T. );
#88 = FACE_BOUND( '', #137, .T. );
#89 = FACE_OUTER_BOUND( '', #138, .T. );
#90 = PLANE( '', #139 );
#91 = SURFACE_STYLE_USAGE( .BOTH., #140 );
#92 = FACE_OUTER_BOUND( '', #141, .T. );
#93 = PLANE( '', #142 );
#94 = SURFACE_STYLE_USAGE( .BOTH., #143 );
#95 = FACE_OUTER_BOUND( '', #144, .T. );
#96 = PLANE( '', #145 );
#97 = SURFACE_STYLE_USAGE( .BOTH., #146 );
#98 = FACE_OUTER_BOUND( '', #147, .T. );
#99 = FACE_OUTER_BOUND( '', #148, .T. );
#100 = CYLINDRICAL_SURFACE( '', #149, 9.00000000000000 );
#101 = SURFACE_STYLE_USAGE( .BOTH., #150 );
#102 = FACE_BOUND( '', #151, .T. );
#103 = FACE_BOUND( '', #152, .T. );
#104 = FACE_BOUND( '', #153, .T. );
#105 = FACE_BOUND( '', #154, .T. );
#106 = FACE_OUTER_BOUND( '', #155, .T. );
#107 = PLANE( '', #156 );
#108 = SURFACE_STYLE_USAGE( .BOTH., #157 );
#109 = FACE_OUTER_BOUND( '', #158, .T. );
#110 = FACE_OUTER_BOUND( '', #159, .T. );
#111 = CYLINDRICAL_SURFACE( '', #160, 21.0000000000000 );
#112 = PRODUCT_CONTEXT( '', #20, 'mechanical' );
#113 = PRODUCT_DEFINITION_FORMATION_WITH_SPECIFIED_SOURCE( ' ', 'NONE', #53, .NOT_KNOWN. );
#114 = CLOSED_SHELL( '', ( #48, #42, #44, #50, #36, #34, #46, #40, #52, #38 ) );
#115 = CARTESIAN_POINT( '', ( 0.000000000000000, 0.000000000000000, 0.000000000000000 ) );
#116 = DIRECTION( '', ( 0.000000000000000, 0.000000000000000, 1.00000000000000 ) );
#117 = DIRECTION( '', ( 1.00000000000000, 0.000000000000000, 0.000000000000000 ) );
#118 =  ( LENGTH_UNIT(  )NAMED_UNIT( #62 )SI_UNIT( .MILLI., .METRE. ) );
#119 = SURFACE_SIDE_STYLE( '', ( #162 ) );
#120 = EDGE_LOOP( '', ( #163, #164, #165, #166 ) );
#121 = AXIS2_PLACEMENT_3D( '', #167, #168, #169 );
#122 = SURFACE_SIDE_STYLE( '', ( #170 ) );
#123 = EDGE_LOOP( '', ( #171, #172, #173, #174 ) );
#124 = AXIS2_PLACEMENT_3D( '', #175, #176, #177 );
#125 = SURFACE_SIDE_STYLE( '', ( #178 ) );
#126 = EDGE_LOOP( '', ( #179 ) );
#127 = EDGE_LOOP( '', ( #180 ) );
#128 = AXIS2_PLACEMENT_3D( '', #181, #182, #183 );
#129 = SURFACE_SIDE_STYLE( '', ( #184 ) );
#130 = EDGE_LOOP( '', ( #185 ) );
#131 = EDGE_LOOP( '', ( #186 ) );
#132 = AXIS2_PLACEMENT_3D( '', #187, #188, #189 );
#133 = SURFACE_SIDE_STYLE( '', ( #190 ) );
#134 = EDGE_LOOP( '', ( #191 ) );
#135 = EDGE_LOOP( '', ( #192 ) );
#136 = EDGE_LOOP( '', ( #193 ) );
#137 = EDGE_LOOP( '', ( #194 ) );
#138 = EDGE_LOOP( '', ( #195, #196, #197, #198 ) );
#139 = AXIS2_PLACEMENT_3D( '', #199, #200, #201 );
#140 = SURFACE_SIDE_STYLE( '', ( #202 ) );
#141 = EDGE_LOOP( '', ( #203, #204, #205, #206 ) );
#142 = AXIS2_PLACEMENT_3D( '', #207, #208, #209 );
#143 = SURFACE_SIDE_STYLE( '', ( #210 ) );
#144 = EDGE_LOOP( '', ( #211, #212, #213, #214 ) );
#145 = AXIS2_PLACEMENT_3D( '', #215, #216, #217 );
#146 = SURFACE_SIDE_STYLE( '', ( #218 ) );
#147 = EDGE_LOOP( '', ( #219 ) );
#148 = EDGE_LOOP( '', ( #220 ) );
#149 = AXIS2_PLACEMENT_3D( '', #221, #222, #223 );
#150 = SURFACE_SIDE_STYLE( '', ( #224 ) );
#151 = EDGE_LOOP( '', ( #225 ) );
#152 = EDGE_LOOP( '', ( #226 ) );
#153 = EDGE_LOOP( '', ( #227 ) );
#154 = EDGE_LOOP( '', ( #228 ) );
#155 = EDGE_LOOP( '', ( #229, #230, #231, #232 ) );
#156 = AXIS2_PLACEMENT_3D( '', #233, #234, #235 );
#157 = SURFACE_SIDE_STYLE( '', ( #236 ) );
#158 = EDGE_LOOP( '', ( #237 ) );
#159 = EDGE_LOOP( '', ( #238 ) );
#160 = AXIS2_PLACEMENT_3D( '', #239, #240, #241 );
#162 = SURFACE_STYLE_FILL_AREA( #242 );
#163 = ORIENTED_EDGE( '', *, *, #243, .T. );
#164 = ORIENTED_EDGE( '', *, *, #244, .F. );
#165 = ORIENTED_EDGE( '', *, *, #245, .F. );
#166 = ORIENTED_EDGE( '', *, *, #246, .T. );
#167 = CARTESIAN_POINT( '', ( 298.000000000000, 31.0000000000000, 76.0000000000000 ) );
#168 = DIRECTION( '', ( -2.91060985902149E-017, -1.00000000000000, 0.000000000000000 ) );
#169 = DIRECTION( '', ( 1.00000000000000, -2.91060985902149E-017, 0.000000000000000 ) );
#170 = SURFACE_STYLE_FILL_AREA( #247 );
#171 = ORIENTED_EDGE( '', *, *, #248, .T. );
#172 = ORIENTED_EDGE( '', *, *, #249, .F. );
#173 = ORIENTED_EDGE( '', *, *, #250, .F. );
#174 = ORIENTED_EDGE( '', *, *, #251, .T. );
#175 = CARTESIAN_POINT( '', ( -298.000000000000, -31.0000000000000, 76.0000000000000 ) );
#176 = DIRECTION( '', ( 5.82121971804298E-017, 1.00000000000000, 0.000000000000000 ) );
#177 = DIRECTION( '', ( -1.00000000000000, 5.82121971804298E-017, 0.000000000000000 ) );
#178 = SURFACE_STYLE_FILL_AREA( #252 );
#179 = ORIENTED_EDGE( '', *, *, #253, .F. );
#180 = ORIENTED_EDGE( '', *, *, #254, .F. );
#181 = CARTESIAN_POINT( '', ( -262.000000000000, 5.00000000000000, 76.0000000000000 ) );
#182 = DIRECTION( '', ( -0.000000000000000, -0.000000000000000, 1.00000000000000 ) );
#183 = DIRECTION( '', ( 0.000000000000000, -1.00000000000000, 0.000000000000000 ) );
#184 = SURFACE_STYLE_FILL_AREA( #255 );
#185 = ORIENTED_EDGE( '', *, *, #256, .F. );
#186 = ORIENTED_EDGE( '', *, *, #257, .F. );
#187 = CARTESIAN_POINT( '', ( 215.000000000000, 5.00000000000006, 76.0000000000000 ) );
#188 = DIRECTION( '', ( -0.000000000000000, -0.000000000000000, 1.00000000000000 ) );
#189 = DIRECTION( '', ( 0.000000000000000, -1.00000000000000, 0.000000000000000 ) );
#190 = SURFACE_STYLE_FILL_AREA( #258 );
#191 = ORIENTED_EDGE( '', *, *, #254, .T. );
#192 = ORIENTED_EDGE( '', *, *, #259, .T. );
#193 = ORIENTED_EDGE( '', *, *, #257, .T. );
#194 = ORIENTED_EDGE( '', *, *, #260, .T. );
#195 = ORIENTED_EDGE( '', *, *, #243, .F. );
#196 = ORIENTED_EDGE( '', *, *, #261, .F. );
#197 = ORIENTED_EDGE( '', *, *, #248, .F. );
#198 = ORIENTED_EDGE( '', *, *, #262, .F. );
#199 = CARTESIAN_POINT( '', ( -298.000000000000, 31.0000000000000, 0.000000000000000 ) );
#200 = DIRECTION( '', ( 0.000000000000000, 0.000000000000000, 1.00000000000000 ) );
#201 = DIRECTION( '', ( 1.00000000000000, 0.000000000000000, 0.000000000000000 ) );
#202 = SURFACE_STYLE_FILL_AREA( #263 );
#203 = ORIENTED_EDGE( '', *, *, #261, .T. );
#204 = ORIENTED_EDGE( '', *, *, #246, .F. );
#205 = ORIENTED_EDGE( '', *, *, #264, .F. );
#206 = ORIENTED_EDGE( '', *, *, #249, .T. );
#207 = CARTESIAN_POINT( '', ( 298.000000000000, -31.0000000000000, 76.0000000000000 ) );
#208 = DIRECTION( '', ( -1.00000000000000, 0.000000000000000, 0.000000000000000 ) );
#209 = DIRECTION( '', ( 0.000000000000000, 0.000000000000000, 1.00000000000000 ) );
#210 = SURFACE_STYLE_FILL_AREA( #265 );
#211 = ORIENTED_EDGE( '', *, *, #262, .T. );
#212 = ORIENTED_EDGE( '', *, *, #251, .F. );
#213 = ORIENTED_EDGE( '', *, *, #266, .F. );
#214 = ORIENTED_EDGE( '', *, *, #244, .T. );
#215 = CARTESIAN_POINT( '', ( -298.000000000000, 31.0000000000000, 76.0000000000000 ) );
#216 = DIRECTION( '', ( 1.00000000000000, 0.000000000000000, 0.000000000000000 ) );
#217 = DIRECTION( '', ( 0.000000000000000, 0.000000000000000, -1.00000000000000 ) );
#218 = SURFACE_STYLE_FILL_AREA( #267 );
#219 = ORIENTED_EDGE( '', *, *, #268, .F. );
#220 = ORIENTED_EDGE( '', *, *, #260, .F. );
#221 = CARTESIAN_POINT( '', ( -215.000000000000, 5.00000000000000, 76.0000000000000 ) );
#222 = DIRECTION( '', ( -0.000000000000000, -0.000000000000000, 1.00000000000000 ) );
#223 = DIRECTION( '', ( 0.000000000000000, -1.00000000000000, 0.000000000000000 ) );
#224 = SURFACE_STYLE_FILL_AREA( #269 );
#225 = ORIENTED_EDGE( '', *, *, #253, .T. );
#226 = ORIENTED_EDGE( '', *, *, #270, .T. );
#227 = ORIENTED_EDGE( '', *, *, #256, .T. );
#228 = ORIENTED_EDGE( '', *, *, #268, .T. );
#229 = ORIENTED_EDGE( '', *, *, #245, .T. );
#230 = ORIENTED_EDGE( '', *, *, #266, .T. );
#231 = ORIENTED_EDGE( '', *, *, #250, .T. );
#232 = ORIENTED_EDGE( '', *, *, #264, .T. );
#233 = CARTESIAN_POINT( '', ( -298.000000000000, 31.0000000000000, 76.0000000000000 ) );
#234 = DIRECTION( '', ( 0.000000000000000, 0.000000000000000, 1.00000000000000 ) );
#235 = DIRECTION( '', ( 1.00000000000000, 0.000000000000000, 0.000000000000000 ) );
#236 = SURFACE_STYLE_FILL_AREA( #271 );
#237 = ORIENTED_EDGE( '', *, *, #270, .F. );
#238 = ORIENTED_EDGE( '', *, *, #259, .F. );
#239 = CARTESIAN_POINT( '', ( 262.000000000000, 5.00000000000000, 76.0000000000000 ) );
#240 = DIRECTION( '', ( -0.000000000000000, -0.000000000000000, 1.00000000000000 ) );
#241 = DIRECTION( '', ( 0.000000000000000, -1.00000000000000, 0.000000000000000 ) );
#242 = FILL_AREA_STYLE( '', ( #272 ) );
#243 = EDGE_CURVE( '', #273, #274, #275, .T. );
#244 = EDGE_CURVE( '', #276, #274, #277, .T. );
#245 = EDGE_CURVE( '', #278, #276, #279, .T. );
#246 = EDGE_CURVE( '', #278, #273, #280, .T. );
#247 = FILL_AREA_STYLE( '', ( #281 ) );
#248 = EDGE_CURVE( '', #282, #283, #284, .T. );
#249 = EDGE_CURVE( '', #285, #283, #286, .T. );
#250 = EDGE_CURVE( '', #287, #285, #288, .T. );
#251 = EDGE_CURVE( '', #287, #282, #289, .T. );
#252 = FILL_AREA_STYLE( '', ( #290 ) );
#253 = EDGE_CURVE( '', #291, #291, #292, .T. );
#254 = EDGE_CURVE( '', #293, #293, #294, .T. );
#255 = FILL_AREA_STYLE( '', ( #295 ) );
#256 = EDGE_CURVE( '', #296, #296, #297, .T. );
#257 = EDGE_CURVE( '', #298, #298, #299, .T. );
#258 = FILL_AREA_STYLE( '', ( #300 ) );
#259 = EDGE_CURVE( '', #301, #301, #302, .T. );
#260 = EDGE_CURVE( '', #303, #303, #304, .T. );
#261 = EDGE_CURVE( '', #283, #273, #305, .T. );
#262 = EDGE_CURVE( '', #274, #282, #306, .T. );
#263 = FILL_AREA_STYLE( '', ( #307 ) );
#264 = EDGE_CURVE( '', #285, #278, #308, .T. );
#265 = FILL_AREA_STYLE( '', ( #309 ) );
#266 = EDGE_CURVE( '', #276, #287, #310, .T. );
#267 = FILL_AREA_STYLE( '', ( #311 ) );
#268 = EDGE_CURVE( '', #312, #312, #313, .T. );
#269 = FILL_AREA_STYLE( '', ( #314 ) );
#270 = EDGE_CURVE( '', #315, #315, #316, .T. );
#271 = FILL_AREA_STYLE( '', ( #317 ) );
#272 = FILL_AREA_STYLE_COLOUR( '', #318 );
#273 = VERTEX_POINT( '', #319 );
#274 = VERTEX_POINT( '', #320 );
#275 = LINE( '', #321, #322 );
#276 = VERTEX_POINT( '', #323 );
#277 = LINE( '', #324, #325 );
#278 = VERTEX_POINT( '', #326 );
#279 = LINE( '', #327, #328 );
#280 = LINE( '', #329, #330 );
#281 = FILL_AREA_STYLE_COLOUR( '', #331 );
#282 = VERTEX_POINT( '', #332 );
#283 = VERTEX_POINT( '', #333 );
#284 = LINE( '', #334, #335 );
#285 = VERTEX_POINT( '', #336 );
#286 = LINE( '', #337, #338 );
#287 = VERTEX_POINT( '', #339 );
#288 = LINE( '', #340, #341 );
#289 = LINE( '', #342, #343 );
#290 = FILL_AREA_STYLE_COLOUR( '', #344 );
#291 = VERTEX_POINT( '', #345 );
#292 = CIRCLE( '', #346, 21.0000000000000 );
#293 = VERTEX_POINT( '', #347 );
#294 = CIRCLE( '', #348, 21.0000000000000 );
#295 = FILL_AREA_STYLE_COLOUR( '', #349 );
#296 = VERTEX_POINT( '', #350 );
#297 = CIRCLE( '', #351, 9.00000000000000 );
#298 = VERTEX_POINT( '', #352 );
#299 = CIRCLE( '', #353, 9.00000000000000 );
#300 = FILL_AREA_STYLE_COLOUR( '', #354 );
#301 = VERTEX_POINT( '', #355 );
#302 = CIRCLE( '', #356, 21.0000000000000 );
#303 = VERTEX_POINT( '', #357 );
#304 = CIRCLE( '', #358, 9.00000000000000 );
#305 = LINE( '', #359, #360 );
#306 = LINE( '', #361, #362 );
#307 = FILL_AREA_STYLE_COLOUR( '', #363 );
#308 = LINE( '', #364, #365 );
#309 = FILL_AREA_STYLE_COLOUR( '', #366 );
#310 = LINE( '', #367, #368 );
#311 = FILL_AREA_STYLE_COLOUR( '', #369 );
#312 = VERTEX_POINT( '', #370 );
#313 = CIRCLE( '', #371, 9.00000000000000 );
#314 = FILL_AREA_STYLE_COLOUR( '', #372 );
#315 = VERTEX_POINT( '', #373 );
#316 = CIRCLE( '', #374, 21.0000000000000 );
#317 = FILL_AREA_STYLE_COLOUR( '', #375 );
#318 = COLOUR_RGB( '', 0.752941191196442, 0.752941191196442, 0.752941191196442 );
#319 = CARTESIAN_POINT( '', ( 298.000000000000, 31.0000000000000, 0.000000000000000 ) );
#320 = CARTESIAN_POINT( '', ( -298.000000000000, 31.0000000000000, 0.000000000000000 ) );
#321 = CARTESIAN_POINT( '', ( 298.000000000000, 31.0000000000000, 0.000000000000000 ) );
#322 = VECTOR( '', #376, 1000.00000000000 );
#323 = CARTESIAN_POINT( '', ( -298.000000000000, 31.0000000000000, 76.0000000000000 ) );
#324 = CARTESIAN_POINT( '', ( -298.000000000000, 31.0000000000000, 76.0000000000000 ) );
#325 = VECTOR( '', #377, 1000.00000000000 );
#326 = CARTESIAN_POINT( '', ( 298.000000000000, 31.0000000000000, 76.0000000000000 ) );
#327 = CARTESIAN_POINT( '', ( 298.000000000000, 31.0000000000000, 76.0000000000000 ) );
#328 = VECTOR( '', #378, 1000.00000000000 );
#329 = CARTESIAN_POINT( '', ( 298.000000000000, 31.0000000000000, 76.0000000000000 ) );
#330 = VECTOR( '', #379, 1000.00000000000 );
#331 = COLOUR_RGB( '', 0.752941191196442, 0.752941191196442, 0.752941191196442 );
#332 = CARTESIAN_POINT( '', ( -298.000000000000, -31.0000000000000, 0.000000000000000 ) );
#333 = CARTESIAN_POINT( '', ( 298.000000000000, -31.0000000000000, 0.000000000000000 ) );
#334 = CARTESIAN_POINT( '', ( -298.000000000000, -31.0000000000000, 0.000000000000000 ) );
#335 = VECTOR( '', #380, 1000.00000000000 );
#336 = CARTESIAN_POINT( '', ( 298.000000000000, -31.0000000000000, 76.0000000000000 ) );
#337 = CARTESIAN_POINT( '', ( 298.000000000000, -31.0000000000000, 76.0000000000000 ) );
#338 = VECTOR( '', #381, 1000.00000000000 );
#339 = CARTESIAN_POINT( '', ( -298.000000000000, -31.0000000000000, 76.0000000000000 ) );
#340 = CARTESIAN_POINT( '', ( -298.000000000000, -31.0000000000000, 76.0000000000000 ) );
#341 = VECTOR( '', #382, 1000.00000000000 );
#342 = CARTESIAN_POINT( '', ( -298.000000000000, -31.0000000000000, 76.0000000000000 ) );
#343 = VECTOR( '', #383, 1000.00000000000 );
#344 = COLOUR_RGB( '', 0.752941191196442, 0.752941191196442, 0.752941191196442 );
#345 = CARTESIAN_POINT( '', ( -262.000000000000, -16.0000000000000, 76.0000000000000 ) );
#346 = AXIS2_PLACEMENT_3D( '', #384, #385, #386 );
#347 = CARTESIAN_POINT( '', ( -241.000000000000, 5.00000000000000, 0.000000000000000 ) );
#348 = AXIS2_PLACEMENT_3D( '', #387, #388, #389 );
#349 = COLOUR_RGB( '', 0.752941191196442, 0.752941191196442, 0.752941191196442 );
#350 = CARTESIAN_POINT( '', ( 215.000000000000, -3.99999999999994, 76.0000000000000 ) );
#351 = AXIS2_PLACEMENT_3D( '', #390, #391, #392 );
#352 = CARTESIAN_POINT( '', ( 224.000000000000, 5.00000000000006, 0.000000000000000 ) );
#353 = AXIS2_PLACEMENT_3D( '', #393, #394, #395 );
#354 = COLOUR_RGB( '', 0.752941191196442, 0.752941191196442, 0.752941191196442 );
#355 = CARTESIAN_POINT( '', ( 283.000000000000, 5.00000000000000, 0.000000000000000 ) );
#356 = AXIS2_PLACEMENT_3D( '', #396, #397, #398 );
#357 = CARTESIAN_POINT( '', ( -206.000000000000, 5.00000000000000, 0.000000000000000 ) );
#358 = AXIS2_PLACEMENT_3D( '', #399, #400, #401 );
#359 = CARTESIAN_POINT( '', ( 298.000000000000, -31.0000000000000, 0.000000000000000 ) );
#360 = VECTOR( '', #402, 1000.00000000000 );
#361 = CARTESIAN_POINT( '', ( -298.000000000000, 31.0000000000000, 0.000000000000000 ) );
#362 = VECTOR( '', #403, 1000.00000000000 );
#363 = COLOUR_RGB( '', 0.752941191196442, 0.752941191196442, 0.752941191196442 );
#364 = CARTESIAN_POINT( '', ( 298.000000000000, -31.0000000000000, 76.0000000000000 ) );
#365 = VECTOR( '', #404, 1000.00000000000 );
#366 = COLOUR_RGB( '', 0.752941191196442, 0.752941191196442, 0.752941191196442 );
#367 = CARTESIAN_POINT( '', ( -298.000000000000, 31.0000000000000, 76.0000000000000 ) );
#368 = VECTOR( '', #405, 1000.00000000000 );
#369 = COLOUR_RGB( '', 0.752941191196442, 0.752941191196442, 0.752941191196442 );
#370 = CARTESIAN_POINT( '', ( -215.000000000000, -4.00000000000000, 76.0000000000000 ) );
#371 = AXIS2_PLACEMENT_3D( '', #406, #407, #408 );
#372 = COLOUR_RGB( '', 0.752941191196442, 0.752941191196442, 0.752941191196442 );
#373 = CARTESIAN_POINT( '', ( 262.000000000000, -16.0000000000000, 76.0000000000000 ) );
#374 = AXIS2_PLACEMENT_3D( '', #409, #410, #411 );
#375 = COLOUR_RGB( '', 0.752941191196442, 0.752941191196442, 0.752941191196442 );
#376 = DIRECTION( '', ( -1.00000000000000, 2.91060985902149E-017, 0.000000000000000 ) );
#377 = DIRECTION( '', ( 0.000000000000000, 0.000000000000000, -1.00000000000000 ) );
#378 = DIRECTION( '', ( -1.00000000000000, 2.91060985902149E-017, 0.000000000000000 ) );
#379 = DIRECTION( '', ( 0.000000000000000, 0.000000000000000, -1.00000000000000 ) );
#380 = DIRECTION( '', ( 1.00000000000000, -5.82121971804298E-017, 0.000000000000000 ) );
#381 = DIRECTION( '', ( 0.000000000000000, 0.000000000000000, -1.00000000000000 ) );
#382 = DIRECTION( '', ( 1.00000000000000, -5.82121971804298E-017, 0.000000000000000 ) );
#383 = DIRECTION( '', ( 0.000000000000000, 0.000000000000000, -1.00000000000000 ) );
#384 = CARTESIAN_POINT( '', ( -262.000000000000, 5.00000000000000, 76.0000000000000 ) );
#385 = DIRECTION( '', ( 0.000000000000000, 0.000000000000000, -1.00000000000000 ) );
#386 = DIRECTION( '', ( 0.000000000000000, -1.00000000000000, 0.000000000000000 ) );
#387 = CARTESIAN_POINT( '', ( -262.000000000000, 5.00000000000000, 0.000000000000000 ) );
#388 = DIRECTION( '', ( 0.000000000000000, 0.000000000000000, 1.00000000000000 ) );
#389 = DIRECTION( '', ( 1.00000000000000, 0.000000000000000, 0.000000000000000 ) );
#390 = CARTESIAN_POINT( '', ( 215.000000000000, 5.00000000000006, 76.0000000000000 ) );
#391 = DIRECTION( '', ( 0.000000000000000, 0.000000000000000, -1.00000000000000 ) );
#392 = DIRECTION( '', ( 0.000000000000000, -1.00000000000000, 0.000000000000000 ) );
#393 = CARTESIAN_POINT( '', ( 215.000000000000, 5.00000000000006, 0.000000000000000 ) );
#394 = DIRECTION( '', ( 0.000000000000000, 0.000000000000000, 1.00000000000000 ) );
#395 = DIRECTION( '', ( 1.00000000000000, 0.000000000000000, 0.000000000000000 ) );
#396 = CARTESIAN_POINT( '', ( 262.000000000000, 5.00000000000000, 0.000000000000000 ) );
#397 = DIRECTION( '', ( 0.000000000000000, 0.000000000000000, 1.00000000000000 ) );
#398 = DIRECTION( '', ( 1.00000000000000, 0.000000000000000, 0.000000000000000 ) );
#399 = CARTESIAN_POINT( '', ( -215.000000000000, 5.00000000000000, 0.000000000000000 ) );
#400 = DIRECTION( '', ( 0.000000000000000, 0.000000000000000, 1.00000000000000 ) );
#401 = DIRECTION( '', ( 1.00000000000000, 0.000000000000000, 0.000000000000000 ) );
#402 = DIRECTION( '', ( 0.000000000000000, 1.00000000000000, 0.000000000000000 ) );
#403 = DIRECTION( '', ( 0.000000000000000, -1.00000000000000, 0.000000000000000 ) );
#404 = DIRECTION( '', ( 0.000000000000000, 1.00000000000000, 0.000000000000000 ) );
#405 = DIRECTION( '', ( 0.000000000000000, -1.00000000000000, 0.000000000000000 ) );
#406 = CARTESIAN_POINT( '', ( -215.000000000000, 5.00000000000000, 76.0000000000000 ) );
#407 = DIRECTION( '', ( 0.000000000000000, 0.000000000000000, -1.00000000000000 ) );
#408 = DIRECTION( '', ( 0.000000000000000, -1.00000000000000, 0.000000000000000 ) );
#409 = CARTESIAN_POINT( '', ( 262.000000000000, 5.00000000000000, 76.0000000000000 ) );
#410 = DIRECTION( '', ( 0.000000000000000, 0.000000000000000, -1.00000000000000 ) );
#411 = DIRECTION( '', ( 0.000000000000000, -1.00000000000000, 0.000000000000000 ) );
ENDSEC;
END-ISO-10303-21;
