ISO-10303-21;
HEADER;
FILE_DESCRIPTION( ( 'Unknown' ), '1' );
FILE_NAME( 'M:/Piezas_3D/Placas_Par/G2/OS_G2_396x596x116_.stp', 'Unknown', ( 'Unknown' ), ( 'Unknown' ), 'PSStep 16.0.42', 'Unknown', '  ' );
FILE_SCHEMA( ( 'AUTOMOTIVE_DESIGN { 1 0 10303 214 1 1 1 1 }' ) );
ENDSEC;
DATA;
#1 = MECHANICAL_DESIGN_GEOMETRIC_PRESENTATION_REPRESENTATION( ' ', ( #10, #11, #12, #13, #14, #15, #16, #17, #18, #19 ), #6 );
#2 = PRODUCT_DEFINITION_CONTEXT( '', #20, 'design' );
#3 = APPLICATION_PROTOCOL_DEFINITION( 'international standard', 'automotive_design', 2001, #20 );
#4 = PRODUCT_CATEGORY_RELATIONSHIP( 'NONE', 'NONE', #21, #22 );
#5 = SHAPE_DEFINITION_REPRESENTATION( #23, #24 );
#6 =  ( GEOMETRIC_REPRESENTATION_CONTEXT( 3 )GLOBAL_UNCERTAINTY_ASSIGNED_CONTEXT( ( #27 ) )GLOBAL_UNIT_ASSIGNED_CONTEXT( ( #29, #30, #31 ) )REPRESENTATION_CONTEXT( 'NONE', 'WORKSPACE' ) );
#10 = STYLED_ITEM( '', ( #33 ), #34 );
#11 = STYLED_ITEM( '', ( #35 ), #36 );
#12 = STYLED_ITEM( '', ( #37 ), #38 );
#13 = STYLED_ITEM( '', ( #39 ), #40 );
#14 = STYLED_ITEM( '', ( #41 ), #42 );
#15 = STYLED_ITEM( '', ( #43 ), #44 );
#16 = STYLED_ITEM( '', ( #45 ), #46 );
#17 = STYLED_ITEM( '', ( #47 ), #48 );
#18 = STYLED_ITEM( '', ( #49 ), #50 );
#19 = STYLED_ITEM( '', ( #51 ), #52 );
#20 = APPLICATION_CONTEXT( 'core data for automotive mechanical design processes' );
#21 = PRODUCT_CATEGORY( 'part', 'NONE' );
#22 = PRODUCT_RELATED_PRODUCT_CATEGORY( 'detail', ' ', ( #53 ) );
#23 = PRODUCT_DEFINITION_SHAPE( 'NONE', 'NONE', #54 );
#24 = ADVANCED_BREP_SHAPE_REPRESENTATION( '1', ( #55, #56 ), #6 );
#27 = UNCERTAINTY_MEASURE_WITH_UNIT( LENGTH_MEASURE( 0.00100000000000000 ), #29, '', '' );
#29 =  ( CONVERSION_BASED_UNIT( 'MILLIMETRE', #59 )LENGTH_UNIT(  )NAMED_UNIT( #62 ) );
#30 =  ( NAMED_UNIT( #64 )PLANE_ANGLE_UNIT(  )SI_UNIT( $, .RADIAN. ) );
#31 =  ( NAMED_UNIT( #64 )SI_UNIT( $, .STERADIAN. )SOLID_ANGLE_UNIT(  ) );
#33 = PRESENTATION_STYLE_ASSIGNMENT( ( #70 ) );
#34 = ADVANCED_FACE( '', ( #71, #72, #73, #74, #75 ), #76, .F. );
#35 = PRESENTATION_STYLE_ASSIGNMENT( ( #77 ) );
#36 = ADVANCED_FACE( '', ( #78, #79 ), #80, .F. );
#37 = PRESENTATION_STYLE_ASSIGNMENT( ( #81 ) );
#38 = ADVANCED_FACE( '', ( #82 ), #83, .F. );
#39 = PRESENTATION_STYLE_ASSIGNMENT( ( #84 ) );
#40 = ADVANCED_FACE( '', ( #85 ), #86, .F. );
#41 = PRESENTATION_STYLE_ASSIGNMENT( ( #87 ) );
#42 = ADVANCED_FACE( '', ( #88 ), #89, .F. );
#43 = PRESENTATION_STYLE_ASSIGNMENT( ( #90 ) );
#44 = ADVANCED_FACE( '', ( #91, #92 ), #93, .F. );
#45 = PRESENTATION_STYLE_ASSIGNMENT( ( #94 ) );
#46 = ADVANCED_FACE( '', ( #95, #96 ), #97, .F. );
#47 = PRESENTATION_STYLE_ASSIGNMENT( ( #98 ) );
#48 = ADVANCED_FACE( '', ( #99 ), #100, .F. );
#49 = PRESENTATION_STYLE_ASSIGNMENT( ( #101 ) );
#50 = ADVANCED_FACE( '', ( #102, #103 ), #104, .F. );
#51 = PRESENTATION_STYLE_ASSIGNMENT( ( #105 ) );
#52 = ADVANCED_FACE( '', ( #106, #107, #108, #109, #110 ), #111, .T. );
#53 = PRODUCT( '1', '1', 'PART-1-DESC', ( #112 ) );
#54 = PRODUCT_DEFINITION( 'NONE', 'NONE', #113, #2 );
#55 = MANIFOLD_SOLID_BREP( '1', #114 );
#56 = AXIS2_PLACEMENT_3D( '', #115, #116, #117 );
#59 = LENGTH_MEASURE_WITH_UNIT( LENGTH_MEASURE( 1.00000000000000 ), #118 );
#62 = DIMENSIONAL_EXPONENTS( 1.00000000000000, 0.000000000000000, 0.000000000000000, 0.000000000000000, 0.000000000000000, 0.000000000000000, 0.000000000000000 );
#64 = DIMENSIONAL_EXPONENTS( 0.000000000000000, 0.000000000000000, 0.000000000000000, 0.000000000000000, 0.000000000000000, 0.000000000000000, 0.000000000000000 );
#70 = SURFACE_STYLE_USAGE( .BOTH., #119 );
#71 = FACE_BOUND( '', #120, .T. );
#72 = FACE_BOUND( '', #121, .T. );
#73 = FACE_BOUND( '', #122, .T. );
#74 = FACE_BOUND( '', #123, .T. );
#75 = FACE_OUTER_BOUND( '', #124, .T. );
#76 = PLANE( '', #125 );
#77 = SURFACE_STYLE_USAGE( .BOTH., #126 );
#78 = FACE_OUTER_BOUND( '', #127, .T. );
#79 = FACE_OUTER_BOUND( '', #128, .T. );
#80 = CYLINDRICAL_SURFACE( '', #129, 21.0000000000000 );
#81 = SURFACE_STYLE_USAGE( .BOTH., #130 );
#82 = FACE_OUTER_BOUND( '', #131, .T. );
#83 = PLANE( '', #132 );
#84 = SURFACE_STYLE_USAGE( .BOTH., #133 );
#85 = FACE_OUTER_BOUND( '', #134, .T. );
#86 = PLANE( '', #135 );
#87 = SURFACE_STYLE_USAGE( .BOTH., #136 );
#88 = FACE_OUTER_BOUND( '', #137, .T. );
#89 = PLANE( '', #138 );
#90 = SURFACE_STYLE_USAGE( .BOTH., #139 );
#91 = FACE_OUTER_BOUND( '', #140, .T. );
#92 = FACE_OUTER_BOUND( '', #141, .T. );
#93 = CYLINDRICAL_SURFACE( '', #142, 9.00000000000000 );
#94 = SURFACE_STYLE_USAGE( .BOTH., #143 );
#95 = FACE_OUTER_BOUND( '', #144, .T. );
#96 = FACE_OUTER_BOUND( '', #145, .T. );
#97 = CYLINDRICAL_SURFACE( '', #146, 9.00000000000000 );
#98 = SURFACE_STYLE_USAGE( .BOTH., #147 );
#99 = FACE_OUTER_BOUND( '', #148, .T. );
#100 = PLANE( '', #149 );
#101 = SURFACE_STYLE_USAGE( .BOTH., #150 );
#102 = FACE_OUTER_BOUND( '', #151, .T. );
#103 = FACE_OUTER_BOUND( '', #152, .T. );
#104 = CYLINDRICAL_SURFACE( '', #153, 21.0000000000000 );
#105 = SURFACE_STYLE_USAGE( .BOTH., #154 );
#106 = FACE_BOUND( '', #155, .T. );
#107 = FACE_BOUND( '', #156, .T. );
#108 = FACE_BOUND( '', #157, .T. );
#109 = FACE_BOUND( '', #158, .T. );
#110 = FACE_OUTER_BOUND( '', #159, .T. );
#111 = PLANE( '', #160 );
#112 = PRODUCT_CONTEXT( '', #20, 'mechanical' );
#113 = PRODUCT_DEFINITION_FORMATION_WITH_SPECIFIED_SOURCE( ' ', 'NONE', #53, .NOT_KNOWN. );
#114 = CLOSED_SHELL( '', ( #44, #34, #48, #52, #38, #40, #42, #46, #50, #36 ) );
#115 = CARTESIAN_POINT( '', ( 0.000000000000000, 0.000000000000000, 0.000000000000000 ) );
#116 = DIRECTION( '', ( 0.000000000000000, 0.000000000000000, 1.00000000000000 ) );
#117 = DIRECTION( '', ( 1.00000000000000, 0.000000000000000, 0.000000000000000 ) );
#118 =  ( LENGTH_UNIT(  )NAMED_UNIT( #62 )SI_UNIT( .MILLI., .METRE. ) );
#119 = SURFACE_SIDE_STYLE( '', ( #162 ) );
#120 = EDGE_LOOP( '', ( #163 ) );
#121 = EDGE_LOOP( '', ( #164 ) );
#122 = EDGE_LOOP( '', ( #165 ) );
#123 = EDGE_LOOP( '', ( #166 ) );
#124 = EDGE_LOOP( '', ( #167, #168, #169, #170 ) );
#125 = AXIS2_PLACEMENT_3D( '', #171, #172, #173 );
#126 = SURFACE_SIDE_STYLE( '', ( #174 ) );
#127 = EDGE_LOOP( '', ( #175 ) );
#128 = EDGE_LOOP( '', ( #176 ) );
#129 = AXIS2_PLACEMENT_3D( '', #177, #178, #179 );
#130 = SURFACE_SIDE_STYLE( '', ( #180 ) );
#131 = EDGE_LOOP( '', ( #181, #182, #183, #184 ) );
#132 = AXIS2_PLACEMENT_3D( '', #185, #186, #187 );
#133 = SURFACE_SIDE_STYLE( '', ( #188 ) );
#134 = EDGE_LOOP( '', ( #189, #190, #191, #192 ) );
#135 = AXIS2_PLACEMENT_3D( '', #193, #194, #195 );
#136 = SURFACE_SIDE_STYLE( '', ( #196 ) );
#137 = EDGE_LOOP( '', ( #197, #198, #199, #200 ) );
#138 = AXIS2_PLACEMENT_3D( '', #201, #202, #203 );
#139 = SURFACE_SIDE_STYLE( '', ( #204 ) );
#140 = EDGE_LOOP( '', ( #205 ) );
#141 = EDGE_LOOP( '', ( #206 ) );
#142 = AXIS2_PLACEMENT_3D( '', #207, #208, #209 );
#143 = SURFACE_SIDE_STYLE( '', ( #210 ) );
#144 = EDGE_LOOP( '', ( #211 ) );
#145 = EDGE_LOOP( '', ( #212 ) );
#146 = AXIS2_PLACEMENT_3D( '', #213, #214, #215 );
#147 = SURFACE_SIDE_STYLE( '', ( #216 ) );
#148 = EDGE_LOOP( '', ( #217, #218, #219, #220 ) );
#149 = AXIS2_PLACEMENT_3D( '', #221, #222, #223 );
#150 = SURFACE_SIDE_STYLE( '', ( #224 ) );
#151 = EDGE_LOOP( '', ( #225 ) );
#152 = EDGE_LOOP( '', ( #226 ) );
#153 = AXIS2_PLACEMENT_3D( '', #227, #228, #229 );
#154 = SURFACE_SIDE_STYLE( '', ( #230 ) );
#155 = EDGE_LOOP( '', ( #231 ) );
#156 = EDGE_LOOP( '', ( #232 ) );
#157 = EDGE_LOOP( '', ( #233 ) );
#158 = EDGE_LOOP( '', ( #234 ) );
#159 = EDGE_LOOP( '', ( #235, #236, #237, #238 ) );
#160 = AXIS2_PLACEMENT_3D( '', #239, #240, #241 );
#162 = SURFACE_STYLE_FILL_AREA( #242 );
#163 = ORIENTED_EDGE( '', *, *, #243, .T. );
#164 = ORIENTED_EDGE( '', *, *, #244, .T. );
#165 = ORIENTED_EDGE( '', *, *, #245, .T. );
#166 = ORIENTED_EDGE( '', *, *, #246, .T. );
#167 = ORIENTED_EDGE( '', *, *, #247, .F. );
#168 = ORIENTED_EDGE( '', *, *, #248, .F. );
#169 = ORIENTED_EDGE( '', *, *, #249, .F. );
#170 = ORIENTED_EDGE( '', *, *, #250, .F. );
#171 = CARTESIAN_POINT( '', ( -298.000000000000, 31.0000000000000, 0.000000000000000 ) );
#172 = DIRECTION( '', ( 0.000000000000000, 0.000000000000000, 1.00000000000000 ) );
#173 = DIRECTION( '', ( 1.00000000000000, 0.000000000000000, 0.000000000000000 ) );
#174 = SURFACE_STYLE_FILL_AREA( #251 );
#175 = ORIENTED_EDGE( '', *, *, #252, .F. );
#176 = ORIENTED_EDGE( '', *, *, #243, .F. );
#177 = CARTESIAN_POINT( '', ( -262.000000000000, 5.00000000000000, 116.000000000000 ) );
#178 = DIRECTION( '', ( -0.000000000000000, -0.000000000000000, 1.00000000000000 ) );
#179 = DIRECTION( '', ( 0.000000000000000, -1.00000000000000, 0.000000000000000 ) );
#180 = SURFACE_STYLE_FILL_AREA( #253 );
#181 = ORIENTED_EDGE( '', *, *, #249, .T. );
#182 = ORIENTED_EDGE( '', *, *, #254, .F. );
#183 = ORIENTED_EDGE( '', *, *, #255, .F. );
#184 = ORIENTED_EDGE( '', *, *, #256, .T. );
#185 = CARTESIAN_POINT( '', ( -298.000000000000, -31.0000000000000, 116.000000000000 ) );
#186 = DIRECTION( '', ( 5.82121971804298E-017, 1.00000000000000, 0.000000000000000 ) );
#187 = DIRECTION( '', ( -1.00000000000000, 5.82121971804298E-017, 0.000000000000000 ) );
#188 = SURFACE_STYLE_FILL_AREA( #257 );
#189 = ORIENTED_EDGE( '', *, *, #247, .T. );
#190 = ORIENTED_EDGE( '', *, *, #258, .F. );
#191 = ORIENTED_EDGE( '', *, *, #259, .F. );
#192 = ORIENTED_EDGE( '', *, *, #260, .T. );
#193 = CARTESIAN_POINT( '', ( 298.000000000000, 31.0000000000000, 116.000000000000 ) );
#194 = DIRECTION( '', ( -2.91060985902149E-017, -1.00000000000000, 0.000000000000000 ) );
#195 = DIRECTION( '', ( 1.00000000000000, -2.91060985902149E-017, 0.000000000000000 ) );
#196 = SURFACE_STYLE_FILL_AREA( #261 );
#197 = ORIENTED_EDGE( '', *, *, #250, .T. );
#198 = ORIENTED_EDGE( '', *, *, #256, .F. );
#199 = ORIENTED_EDGE( '', *, *, #262, .F. );
#200 = ORIENTED_EDGE( '', *, *, #258, .T. );
#201 = CARTESIAN_POINT( '', ( -298.000000000000, 31.0000000000000, 116.000000000000 ) );
#202 = DIRECTION( '', ( 1.00000000000000, 0.000000000000000, 0.000000000000000 ) );
#203 = DIRECTION( '', ( 0.000000000000000, 0.000000000000000, -1.00000000000000 ) );
#204 = SURFACE_STYLE_FILL_AREA( #263 );
#205 = ORIENTED_EDGE( '', *, *, #264, .F. );
#206 = ORIENTED_EDGE( '', *, *, #246, .F. );
#207 = CARTESIAN_POINT( '', ( -215.000000000000, 5.00000000000000, 116.000000000000 ) );
#208 = DIRECTION( '', ( -0.000000000000000, -0.000000000000000, 1.00000000000000 ) );
#209 = DIRECTION( '', ( 0.000000000000000, -1.00000000000000, 0.000000000000000 ) );
#210 = SURFACE_STYLE_FILL_AREA( #265 );
#211 = ORIENTED_EDGE( '', *, *, #266, .F. );
#212 = ORIENTED_EDGE( '', *, *, #245, .F. );
#213 = CARTESIAN_POINT( '', ( 215.000000000000, 5.00000000000006, 116.000000000000 ) );
#214 = DIRECTION( '', ( -0.000000000000000, -0.000000000000000, 1.00000000000000 ) );
#215 = DIRECTION( '', ( 0.000000000000000, -1.00000000000000, 0.000000000000000 ) );
#216 = SURFACE_STYLE_FILL_AREA( #267 );
#217 = ORIENTED_EDGE( '', *, *, #248, .T. );
#218 = ORIENTED_EDGE( '', *, *, #260, .F. );
#219 = ORIENTED_EDGE( '', *, *, #268, .F. );
#220 = ORIENTED_EDGE( '', *, *, #254, .T. );
#221 = CARTESIAN_POINT( '', ( 298.000000000000, -31.0000000000000, 116.000000000000 ) );
#222 = DIRECTION( '', ( -1.00000000000000, 0.000000000000000, 0.000000000000000 ) );
#223 = DIRECTION( '', ( 0.000000000000000, 0.000000000000000, 1.00000000000000 ) );
#224 = SURFACE_STYLE_FILL_AREA( #269 );
#225 = ORIENTED_EDGE( '', *, *, #270, .F. );
#226 = ORIENTED_EDGE( '', *, *, #244, .F. );
#227 = CARTESIAN_POINT( '', ( 262.000000000000, 5.00000000000000, 116.000000000000 ) );
#228 = DIRECTION( '', ( -0.000000000000000, -0.000000000000000, 1.00000000000000 ) );
#229 = DIRECTION( '', ( 0.000000000000000, -1.00000000000000, 0.000000000000000 ) );
#230 = SURFACE_STYLE_FILL_AREA( #271 );
#231 = ORIENTED_EDGE( '', *, *, #252, .T. );
#232 = ORIENTED_EDGE( '', *, *, #270, .T. );
#233 = ORIENTED_EDGE( '', *, *, #266, .T. );
#234 = ORIENTED_EDGE( '', *, *, #264, .T. );
#235 = ORIENTED_EDGE( '', *, *, #259, .T. );
#236 = ORIENTED_EDGE( '', *, *, #262, .T. );
#237 = ORIENTED_EDGE( '', *, *, #255, .T. );
#238 = ORIENTED_EDGE( '', *, *, #268, .T. );
#239 = CARTESIAN_POINT( '', ( -298.000000000000, 31.0000000000000, 116.000000000000 ) );
#240 = DIRECTION( '', ( 0.000000000000000, 0.000000000000000, 1.00000000000000 ) );
#241 = DIRECTION( '', ( 1.00000000000000, 0.000000000000000, 0.000000000000000 ) );
#242 = FILL_AREA_STYLE( '', ( #272 ) );
#243 = EDGE_CURVE( '', #273, #273, #274, .T. );
#244 = EDGE_CURVE( '', #275, #275, #276, .T. );
#245 = EDGE_CURVE( '', #277, #277, #278, .T. );
#246 = EDGE_CURVE( '', #279, #279, #280, .T. );
#247 = EDGE_CURVE( '', #281, #282, #283, .T. );
#248 = EDGE_CURVE( '', #284, #281, #285, .T. );
#249 = EDGE_CURVE( '', #286, #284, #287, .T. );
#250 = EDGE_CURVE( '', #282, #286, #288, .T. );
#251 = FILL_AREA_STYLE( '', ( #289 ) );
#252 = EDGE_CURVE( '', #290, #290, #291, .T. );
#253 = FILL_AREA_STYLE( '', ( #292 ) );
#254 = EDGE_CURVE( '', #293, #284, #294, .T. );
#255 = EDGE_CURVE( '', #295, #293, #296, .T. );
#256 = EDGE_CURVE( '', #295, #286, #297, .T. );
#257 = FILL_AREA_STYLE( '', ( #298 ) );
#258 = EDGE_CURVE( '', #299, #282, #300, .T. );
#259 = EDGE_CURVE( '', #301, #299, #302, .T. );
#260 = EDGE_CURVE( '', #301, #281, #303, .T. );
#261 = FILL_AREA_STYLE( '', ( #304 ) );
#262 = EDGE_CURVE( '', #299, #295, #305, .T. );
#263 = FILL_AREA_STYLE( '', ( #306 ) );
#264 = EDGE_CURVE( '', #307, #307, #308, .T. );
#265 = FILL_AREA_STYLE( '', ( #309 ) );
#266 = EDGE_CURVE( '', #310, #310, #311, .T. );
#267 = FILL_AREA_STYLE( '', ( #312 ) );
#268 = EDGE_CURVE( '', #293, #301, #313, .T. );
#269 = FILL_AREA_STYLE( '', ( #314 ) );
#270 = EDGE_CURVE( '', #315, #315, #316, .T. );
#271 = FILL_AREA_STYLE( '', ( #317 ) );
#272 = FILL_AREA_STYLE_COLOUR( '', #318 );
#273 = VERTEX_POINT( '', #319 );
#274 = CIRCLE( '', #320, 21.0000000000000 );
#275 = VERTEX_POINT( '', #321 );
#276 = CIRCLE( '', #322, 21.0000000000000 );
#277 = VERTEX_POINT( '', #323 );
#278 = CIRCLE( '', #324, 9.00000000000000 );
#279 = VERTEX_POINT( '', #325 );
#280 = CIRCLE( '', #326, 9.00000000000000 );
#281 = VERTEX_POINT( '', #327 );
#282 = VERTEX_POINT( '', #328 );
#283 = LINE( '', #329, #330 );
#284 = VERTEX_POINT( '', #331 );
#285 = LINE( '', #332, #333 );
#286 = VERTEX_POINT( '', #334 );
#287 = LINE( '', #335, #336 );
#288 = LINE( '', #337, #338 );
#289 = FILL_AREA_STYLE_COLOUR( '', #339 );
#290 = VERTEX_POINT( '', #340 );
#291 = CIRCLE( '', #341, 21.0000000000000 );
#292 = FILL_AREA_STYLE_COLOUR( '', #342 );
#293 = VERTEX_POINT( '', #343 );
#294 = LINE( '', #344, #345 );
#295 = VERTEX_POINT( '', #346 );
#296 = LINE( '', #347, #348 );
#297 = LINE( '', #349, #350 );
#298 = FILL_AREA_STYLE_COLOUR( '', #351 );
#299 = VERTEX_POINT( '', #352 );
#300 = LINE( '', #353, #354 );
#301 = VERTEX_POINT( '', #355 );
#302 = LINE( '', #356, #357 );
#303 = LINE( '', #358, #359 );
#304 = FILL_AREA_STYLE_COLOUR( '', #360 );
#305 = LINE( '', #361, #362 );
#306 = FILL_AREA_STYLE_COLOUR( '', #363 );
#307 = VERTEX_POINT( '', #364 );
#308 = CIRCLE( '', #365, 9.00000000000000 );
#309 = FILL_AREA_STYLE_COLOUR( '', #366 );
#310 = VERTEX_POINT( '', #367 );
#311 = CIRCLE( '', #368, 9.00000000000000 );
#312 = FILL_AREA_STYLE_COLOUR( '', #369 );
#313 = LINE( '', #370, #371 );
#314 = FILL_AREA_STYLE_COLOUR( '', #372 );
#315 = VERTEX_POINT( '', #373 );
#316 = CIRCLE( '', #374, 21.0000000000000 );
#317 = FILL_AREA_STYLE_COLOUR( '', #375 );
#318 = COLOUR_RGB( '', 0.752941191196442, 0.752941191196442, 0.752941191196442 );
#319 = CARTESIAN_POINT( '', ( -241.000000000000, 5.00000000000000, 0.000000000000000 ) );
#320 = AXIS2_PLACEMENT_3D( '', #376, #377, #378 );
#321 = CARTESIAN_POINT( '', ( 283.000000000000, 5.00000000000000, 0.000000000000000 ) );
#322 = AXIS2_PLACEMENT_3D( '', #379, #380, #381 );
#323 = CARTESIAN_POINT( '', ( 224.000000000000, 5.00000000000006, 0.000000000000000 ) );
#324 = AXIS2_PLACEMENT_3D( '', #382, #383, #384 );
#325 = CARTESIAN_POINT( '', ( -206.000000000000, 5.00000000000000, 0.000000000000000 ) );
#326 = AXIS2_PLACEMENT_3D( '', #385, #386, #387 );
#327 = CARTESIAN_POINT( '', ( 298.000000000000, 31.0000000000000, 0.000000000000000 ) );
#328 = CARTESIAN_POINT( '', ( -298.000000000000, 31.0000000000000, 0.000000000000000 ) );
#329 = CARTESIAN_POINT( '', ( 298.000000000000, 31.0000000000000, 0.000000000000000 ) );
#330 = VECTOR( '', #388, 1000.00000000000 );
#331 = CARTESIAN_POINT( '', ( 298.000000000000, -31.0000000000000, 0.000000000000000 ) );
#332 = CARTESIAN_POINT( '', ( 298.000000000000, -31.0000000000000, 0.000000000000000 ) );
#333 = VECTOR( '', #389, 1000.00000000000 );
#334 = CARTESIAN_POINT( '', ( -298.000000000000, -31.0000000000000, 0.000000000000000 ) );
#335 = CARTESIAN_POINT( '', ( -298.000000000000, -31.0000000000000, 0.000000000000000 ) );
#336 = VECTOR( '', #390, 1000.00000000000 );
#337 = CARTESIAN_POINT( '', ( -298.000000000000, 31.0000000000000, 0.000000000000000 ) );
#338 = VECTOR( '', #391, 1000.00000000000 );
#339 = COLOUR_RGB( '', 0.752941191196442, 0.752941191196442, 0.752941191196442 );
#340 = CARTESIAN_POINT( '', ( -262.000000000000, -16.0000000000000, 116.000000000000 ) );
#341 = AXIS2_PLACEMENT_3D( '', #392, #393, #394 );
#342 = COLOUR_RGB( '', 0.752941191196442, 0.752941191196442, 0.752941191196442 );
#343 = CARTESIAN_POINT( '', ( 298.000000000000, -31.0000000000000, 116.000000000000 ) );
#344 = CARTESIAN_POINT( '', ( 298.000000000000, -31.0000000000000, 116.000000000000 ) );
#345 = VECTOR( '', #395, 1000.00000000000 );
#346 = CARTESIAN_POINT( '', ( -298.000000000000, -31.0000000000000, 116.000000000000 ) );
#347 = CARTESIAN_POINT( '', ( -298.000000000000, -31.0000000000000, 116.000000000000 ) );
#348 = VECTOR( '', #396, 1000.00000000000 );
#349 = CARTESIAN_POINT( '', ( -298.000000000000, -31.0000000000000, 116.000000000000 ) );
#350 = VECTOR( '', #397, 1000.00000000000 );
#351 = COLOUR_RGB( '', 0.752941191196442, 0.752941191196442, 0.752941191196442 );
#352 = CARTESIAN_POINT( '', ( -298.000000000000, 31.0000000000000, 116.000000000000 ) );
#353 = CARTESIAN_POINT( '', ( -298.000000000000, 31.0000000000000, 116.000000000000 ) );
#354 = VECTOR( '', #398, 1000.00000000000 );
#355 = CARTESIAN_POINT( '', ( 298.000000000000, 31.0000000000000, 116.000000000000 ) );
#356 = CARTESIAN_POINT( '', ( 298.000000000000, 31.0000000000000, 116.000000000000 ) );
#357 = VECTOR( '', #399, 1000.00000000000 );
#358 = CARTESIAN_POINT( '', ( 298.000000000000, 31.0000000000000, 116.000000000000 ) );
#359 = VECTOR( '', #400, 1000.00000000000 );
#360 = COLOUR_RGB( '', 0.752941191196442, 0.752941191196442, 0.752941191196442 );
#361 = CARTESIAN_POINT( '', ( -298.000000000000, 31.0000000000000, 116.000000000000 ) );
#362 = VECTOR( '', #401, 1000.00000000000 );
#363 = COLOUR_RGB( '', 0.752941191196442, 0.752941191196442, 0.752941191196442 );
#364 = CARTESIAN_POINT( '', ( -215.000000000000, -4.00000000000000, 116.000000000000 ) );
#365 = AXIS2_PLACEMENT_3D( '', #402, #403, #404 );
#366 = COLOUR_RGB( '', 0.752941191196442, 0.752941191196442, 0.752941191196442 );
#367 = CARTESIAN_POINT( '', ( 215.000000000000, -3.99999999999994, 116.000000000000 ) );
#368 = AXIS2_PLACEMENT_3D( '', #405, #406, #407 );
#369 = COLOUR_RGB( '', 0.752941191196442, 0.752941191196442, 0.752941191196442 );
#370 = CARTESIAN_POINT( '', ( 298.000000000000, -31.0000000000000, 116.000000000000 ) );
#371 = VECTOR( '', #408, 1000.00000000000 );
#372 = COLOUR_RGB( '', 0.752941191196442, 0.752941191196442, 0.752941191196442 );
#373 = CARTESIAN_POINT( '', ( 262.000000000000, -16.0000000000000, 116.000000000000 ) );
#374 = AXIS2_PLACEMENT_3D( '', #409, #410, #411 );
#375 = COLOUR_RGB( '', 0.752941191196442, 0.752941191196442, 0.752941191196442 );
#376 = CARTESIAN_POINT( '', ( -262.000000000000, 5.00000000000000, 0.000000000000000 ) );
#377 = DIRECTION( '', ( 0.000000000000000, 0.000000000000000, 1.00000000000000 ) );
#378 = DIRECTION( '', ( 1.00000000000000, 0.000000000000000, 0.000000000000000 ) );
#379 = CARTESIAN_POINT( '', ( 262.000000000000, 5.00000000000000, 0.000000000000000 ) );
#380 = DIRECTION( '', ( 0.000000000000000, 0.000000000000000, 1.00000000000000 ) );
#381 = DIRECTION( '', ( 1.00000000000000, 0.000000000000000, 0.000000000000000 ) );
#382 = CARTESIAN_POINT( '', ( 215.000000000000, 5.00000000000006, 0.000000000000000 ) );
#383 = DIRECTION( '', ( 0.000000000000000, 0.000000000000000, 1.00000000000000 ) );
#384 = DIRECTION( '', ( 1.00000000000000, 0.000000000000000, 0.000000000000000 ) );
#385 = CARTESIAN_POINT( '', ( -215.000000000000, 5.00000000000000, 0.000000000000000 ) );
#386 = DIRECTION( '', ( 0.000000000000000, 0.000000000000000, 1.00000000000000 ) );
#387 = DIRECTION( '', ( 1.00000000000000, 0.000000000000000, 0.000000000000000 ) );
#388 = DIRECTION( '', ( -1.00000000000000, 2.91060985902149E-017, 0.000000000000000 ) );
#389 = DIRECTION( '', ( 0.000000000000000, 1.00000000000000, 0.000000000000000 ) );
#390 = DIRECTION( '', ( 1.00000000000000, -5.82121971804298E-017, 0.000000000000000 ) );
#391 = DIRECTION( '', ( 0.000000000000000, -1.00000000000000, 0.000000000000000 ) );
#392 = CARTESIAN_POINT( '', ( -262.000000000000, 5.00000000000000, 116.000000000000 ) );
#393 = DIRECTION( '', ( 0.000000000000000, 0.000000000000000, -1.00000000000000 ) );
#394 = DIRECTION( '', ( 0.000000000000000, -1.00000000000000, 0.000000000000000 ) );
#395 = DIRECTION( '', ( 0.000000000000000, 0.000000000000000, -1.00000000000000 ) );
#396 = DIRECTION( '', ( 1.00000000000000, -5.82121971804298E-017, 0.000000000000000 ) );
#397 = DIRECTION( '', ( 0.000000000000000, 0.000000000000000, -1.00000000000000 ) );
#398 = DIRECTION( '', ( 0.000000000000000, 0.000000000000000, -1.00000000000000 ) );
#399 = DIRECTION( '', ( -1.00000000000000, 2.91060985902149E-017, 0.000000000000000 ) );
#400 = DIRECTION( '', ( 0.000000000000000, 0.000000000000000, -1.00000000000000 ) );
#401 = DIRECTION( '', ( 0.000000000000000, -1.00000000000000, 0.000000000000000 ) );
#402 = CARTESIAN_POINT( '', ( -215.000000000000, 5.00000000000000, 116.000000000000 ) );
#403 = DIRECTION( '', ( 0.000000000000000, 0.000000000000000, -1.00000000000000 ) );
#404 = DIRECTION( '', ( 0.000000000000000, -1.00000000000000, 0.000000000000000 ) );
#405 = CARTESIAN_POINT( '', ( 215.000000000000, 5.00000000000006, 116.000000000000 ) );
#406 = DIRECTION( '', ( 0.000000000000000, 0.000000000000000, -1.00000000000000 ) );
#407 = DIRECTION( '', ( 0.000000000000000, -1.00000000000000, 0.000000000000000 ) );
#408 = DIRECTION( '', ( 0.000000000000000, 1.00000000000000, 0.000000000000000 ) );
#409 = CARTESIAN_POINT( '', ( 262.000000000000, 5.00000000000000, 116.000000000000 ) );
#410 = DIRECTION( '', ( 0.000000000000000, 0.000000000000000, -1.00000000000000 ) );
#411 = DIRECTION( '', ( 0.000000000000000, -1.00000000000000, 0.000000000000000 ) );
ENDSEC;
END-ISO-10303-21;
