ISO-10303-21;
HEADER;
FILE_DESCRIPTION( ( 'Unknown' ), '1' );
FILE_NAME( 'M:/Piezas_3D/Placas_Par/G2/OS_G2_396x896x136_.stp', 'Unknown', ( 'Unknown' ), ( 'Unknown' ), 'PSStep 16.0.42', 'Unknown', '  ' );
FILE_SCHEMA( ( 'AUTOMOTIVE_DESIGN { 1 0 10303 214 1 1 1 1 }' ) );
ENDSEC;
DATA;
#1 = MECHANICAL_DESIGN_GEOMETRIC_PRESENTATION_REPRESENTATION( ' ', ( #10, #11, #12, #13, #14, #15, #16, #17, #18, #19 ), #6 );
#2 = PRODUCT_DEFINITION_CONTEXT( '', #20, 'design' );
#3 = APPLICATION_PROTOCOL_DEFINITION( 'international standard', 'automotive_design', 2001, #20 );
#4 = PRODUCT_CATEGORY_RELATIONSHIP( 'NONE', 'NONE', #21, #22 );
#5 = SHAPE_DEFINITION_REPRESENTATION( #23, #24 );
#6 =  ( GEOMETRIC_REPRESENTATION_CONTEXT( 3 )GLOBAL_UNCERTAINTY_ASSIGNED_CONTEXT( ( #27 ) )GLOBAL_UNIT_ASSIGNED_CONTEXT( ( #29, #30, #31 ) )REPRESENTATION_CONTEXT( 'NONE', 'WORKSPACE' ) );
#10 = STYLED_ITEM( '', ( #33 ), #34 );
#11 = STYLED_ITEM( '', ( #35 ), #36 );
#12 = STYLED_ITEM( '', ( #37 ), #38 );
#13 = STYLED_ITEM( '', ( #39 ), #40 );
#14 = STYLED_ITEM( '', ( #41 ), #42 );
#15 = STYLED_ITEM( '', ( #43 ), #44 );
#16 = STYLED_ITEM( '', ( #45 ), #46 );
#17 = STYLED_ITEM( '', ( #47 ), #48 );
#18 = STYLED_ITEM( '', ( #49 ), #50 );
#19 = STYLED_ITEM( '', ( #51 ), #52 );
#20 = APPLICATION_CONTEXT( 'core data for automotive mechanical design processes' );
#21 = PRODUCT_CATEGORY( 'part', 'NONE' );
#22 = PRODUCT_RELATED_PRODUCT_CATEGORY( 'detail', ' ', ( #53 ) );
#23 = PRODUCT_DEFINITION_SHAPE( 'NONE', 'NONE', #54 );
#24 = ADVANCED_BREP_SHAPE_REPRESENTATION( '1', ( #55, #56 ), #6 );
#27 = UNCERTAINTY_MEASURE_WITH_UNIT( LENGTH_MEASURE( 0.00100000000000000 ), #29, '', '' );
#29 =  ( CONVERSION_BASED_UNIT( 'MILLIMETRE', #59 )LENGTH_UNIT(  )NAMED_UNIT( #62 ) );
#30 =  ( NAMED_UNIT( #64 )PLANE_ANGLE_UNIT(  )SI_UNIT( $, .RADIAN. ) );
#31 =  ( NAMED_UNIT( #64 )SI_UNIT( $, .STERADIAN. )SOLID_ANGLE_UNIT(  ) );
#33 = PRESENTATION_STYLE_ASSIGNMENT( ( #70 ) );
#34 = ADVANCED_FACE( '', ( #71, #72 ), #73, .F. );
#35 = PRESENTATION_STYLE_ASSIGNMENT( ( #74 ) );
#36 = ADVANCED_FACE( '', ( #75, #76, #77, #78, #79 ), #80, .F. );
#37 = PRESENTATION_STYLE_ASSIGNMENT( ( #81 ) );
#38 = ADVANCED_FACE( '', ( #82, #83 ), #84, .F. );
#39 = PRESENTATION_STYLE_ASSIGNMENT( ( #85 ) );
#40 = ADVANCED_FACE( '', ( #86 ), #87, .F. );
#41 = PRESENTATION_STYLE_ASSIGNMENT( ( #88 ) );
#42 = ADVANCED_FACE( '', ( #89, #90 ), #91, .F. );
#43 = PRESENTATION_STYLE_ASSIGNMENT( ( #92 ) );
#44 = ADVANCED_FACE( '', ( #93 ), #94, .F. );
#45 = PRESENTATION_STYLE_ASSIGNMENT( ( #95 ) );
#46 = ADVANCED_FACE( '', ( #96, #97 ), #98, .F. );
#47 = PRESENTATION_STYLE_ASSIGNMENT( ( #99 ) );
#48 = ADVANCED_FACE( '', ( #100, #101, #102, #103, #104 ), #105, .T. );
#49 = PRESENTATION_STYLE_ASSIGNMENT( ( #106 ) );
#50 = ADVANCED_FACE( '', ( #107 ), #108, .F. );
#51 = PRESENTATION_STYLE_ASSIGNMENT( ( #109 ) );
#52 = ADVANCED_FACE( '', ( #110 ), #111, .F. );
#53 = PRODUCT( '1', '1', 'PART-1-DESC', ( #112 ) );
#54 = PRODUCT_DEFINITION( 'NONE', 'NONE', #113, #2 );
#55 = MANIFOLD_SOLID_BREP( '1', #114 );
#56 = AXIS2_PLACEMENT_3D( '', #115, #116, #117 );
#59 = LENGTH_MEASURE_WITH_UNIT( LENGTH_MEASURE( 1.00000000000000 ), #118 );
#62 = DIMENSIONAL_EXPONENTS( 1.00000000000000, 0.000000000000000, 0.000000000000000, 0.000000000000000, 0.000000000000000, 0.000000000000000, 0.000000000000000 );
#64 = DIMENSIONAL_EXPONENTS( 0.000000000000000, 0.000000000000000, 0.000000000000000, 0.000000000000000, 0.000000000000000, 0.000000000000000, 0.000000000000000 );
#70 = SURFACE_STYLE_USAGE( .BOTH., #119 );
#71 = FACE_OUTER_BOUND( '', #120, .T. );
#72 = FACE_OUTER_BOUND( '', #121, .T. );
#73 = CYLINDRICAL_SURFACE( '', #122, 21.0000000000000 );
#74 = SURFACE_STYLE_USAGE( .BOTH., #123 );
#75 = FACE_BOUND( '', #124, .T. );
#76 = FACE_BOUND( '', #125, .T. );
#77 = FACE_BOUND( '', #126, .T. );
#78 = FACE_BOUND( '', #127, .T. );
#79 = FACE_OUTER_BOUND( '', #128, .T. );
#80 = PLANE( '', #129 );
#81 = SURFACE_STYLE_USAGE( .BOTH., #130 );
#82 = FACE_OUTER_BOUND( '', #131, .T. );
#83 = FACE_OUTER_BOUND( '', #132, .T. );
#84 = CYLINDRICAL_SURFACE( '', #133, 9.00000000000000 );
#85 = SURFACE_STYLE_USAGE( .BOTH., #134 );
#86 = FACE_OUTER_BOUND( '', #135, .T. );
#87 = PLANE( '', #136 );
#88 = SURFACE_STYLE_USAGE( .BOTH., #137 );
#89 = FACE_OUTER_BOUND( '', #138, .T. );
#90 = FACE_OUTER_BOUND( '', #139, .T. );
#91 = CYLINDRICAL_SURFACE( '', #140, 21.0000000000000 );
#92 = SURFACE_STYLE_USAGE( .BOTH., #141 );
#93 = FACE_OUTER_BOUND( '', #142, .T. );
#94 = PLANE( '', #143 );
#95 = SURFACE_STYLE_USAGE( .BOTH., #144 );
#96 = FACE_OUTER_BOUND( '', #145, .T. );
#97 = FACE_OUTER_BOUND( '', #146, .T. );
#98 = CYLINDRICAL_SURFACE( '', #147, 9.00000000000000 );
#99 = SURFACE_STYLE_USAGE( .BOTH., #148 );
#100 = FACE_BOUND( '', #149, .T. );
#101 = FACE_BOUND( '', #150, .T. );
#102 = FACE_BOUND( '', #151, .T. );
#103 = FACE_BOUND( '', #152, .T. );
#104 = FACE_OUTER_BOUND( '', #153, .T. );
#105 = PLANE( '', #154 );
#106 = SURFACE_STYLE_USAGE( .BOTH., #155 );
#107 = FACE_OUTER_BOUND( '', #156, .T. );
#108 = PLANE( '', #157 );
#109 = SURFACE_STYLE_USAGE( .BOTH., #158 );
#110 = FACE_OUTER_BOUND( '', #159, .T. );
#111 = PLANE( '', #160 );
#112 = PRODUCT_CONTEXT( '', #20, 'mechanical' );
#113 = PRODUCT_DEFINITION_FORMATION_WITH_SPECIFIED_SOURCE( ' ', 'NONE', #53, .NOT_KNOWN. );
#114 = CLOSED_SHELL( '', ( #46, #36, #40, #48, #52, #50, #44, #38, #42, #34 ) );
#115 = CARTESIAN_POINT( '', ( 0.000000000000000, 0.000000000000000, 0.000000000000000 ) );
#116 = DIRECTION( '', ( 0.000000000000000, 0.000000000000000, 1.00000000000000 ) );
#117 = DIRECTION( '', ( 1.00000000000000, 0.000000000000000, 0.000000000000000 ) );
#118 =  ( LENGTH_UNIT(  )NAMED_UNIT( #62 )SI_UNIT( .MILLI., .METRE. ) );
#119 = SURFACE_SIDE_STYLE( '', ( #162 ) );
#120 = EDGE_LOOP( '', ( #163 ) );
#121 = EDGE_LOOP( '', ( #164 ) );
#122 = AXIS2_PLACEMENT_3D( '', #165, #166, #167 );
#123 = SURFACE_SIDE_STYLE( '', ( #168 ) );
#124 = EDGE_LOOP( '', ( #169 ) );
#125 = EDGE_LOOP( '', ( #170 ) );
#126 = EDGE_LOOP( '', ( #171 ) );
#127 = EDGE_LOOP( '', ( #172 ) );
#128 = EDGE_LOOP( '', ( #173, #174, #175, #176 ) );
#129 = AXIS2_PLACEMENT_3D( '', #177, #178, #179 );
#130 = SURFACE_SIDE_STYLE( '', ( #180 ) );
#131 = EDGE_LOOP( '', ( #181 ) );
#132 = EDGE_LOOP( '', ( #182 ) );
#133 = AXIS2_PLACEMENT_3D( '', #183, #184, #185 );
#134 = SURFACE_SIDE_STYLE( '', ( #186 ) );
#135 = EDGE_LOOP( '', ( #187, #188, #189, #190 ) );
#136 = AXIS2_PLACEMENT_3D( '', #191, #192, #193 );
#137 = SURFACE_SIDE_STYLE( '', ( #194 ) );
#138 = EDGE_LOOP( '', ( #195 ) );
#139 = EDGE_LOOP( '', ( #196 ) );
#140 = AXIS2_PLACEMENT_3D( '', #197, #198, #199 );
#141 = SURFACE_SIDE_STYLE( '', ( #200 ) );
#142 = EDGE_LOOP( '', ( #201, #202, #203, #204 ) );
#143 = AXIS2_PLACEMENT_3D( '', #205, #206, #207 );
#144 = SURFACE_SIDE_STYLE( '', ( #208 ) );
#145 = EDGE_LOOP( '', ( #209 ) );
#146 = EDGE_LOOP( '', ( #210 ) );
#147 = AXIS2_PLACEMENT_3D( '', #211, #212, #213 );
#148 = SURFACE_SIDE_STYLE( '', ( #214 ) );
#149 = EDGE_LOOP( '', ( #215 ) );
#150 = EDGE_LOOP( '', ( #216 ) );
#151 = EDGE_LOOP( '', ( #217 ) );
#152 = EDGE_LOOP( '', ( #218 ) );
#153 = EDGE_LOOP( '', ( #219, #220, #221, #222 ) );
#154 = AXIS2_PLACEMENT_3D( '', #223, #224, #225 );
#155 = SURFACE_SIDE_STYLE( '', ( #226 ) );
#156 = EDGE_LOOP( '', ( #227, #228, #229, #230 ) );
#157 = AXIS2_PLACEMENT_3D( '', #231, #232, #233 );
#158 = SURFACE_SIDE_STYLE( '', ( #234 ) );
#159 = EDGE_LOOP( '', ( #235, #236, #237, #238 ) );
#160 = AXIS2_PLACEMENT_3D( '', #239, #240, #241 );
#162 = SURFACE_STYLE_FILL_AREA( #242 );
#163 = ORIENTED_EDGE( '', *, *, #243, .F. );
#164 = ORIENTED_EDGE( '', *, *, #244, .F. );
#165 = CARTESIAN_POINT( '', ( -412.000000000000, 5.00000000000000, 136.000000000000 ) );
#166 = DIRECTION( '', ( -0.000000000000000, -0.000000000000000, 1.00000000000000 ) );
#167 = DIRECTION( '', ( 0.000000000000000, -1.00000000000000, 0.000000000000000 ) );
#168 = SURFACE_STYLE_FILL_AREA( #245 );
#169 = ORIENTED_EDGE( '', *, *, #244, .T. );
#170 = ORIENTED_EDGE( '', *, *, #246, .T. );
#171 = ORIENTED_EDGE( '', *, *, #247, .T. );
#172 = ORIENTED_EDGE( '', *, *, #248, .T. );
#173 = ORIENTED_EDGE( '', *, *, #249, .F. );
#174 = ORIENTED_EDGE( '', *, *, #250, .F. );
#175 = ORIENTED_EDGE( '', *, *, #251, .F. );
#176 = ORIENTED_EDGE( '', *, *, #252, .F. );
#177 = CARTESIAN_POINT( '', ( -448.000000000000, 31.0000000000000, 0.000000000000000 ) );
#178 = DIRECTION( '', ( 0.000000000000000, 0.000000000000000, 1.00000000000000 ) );
#179 = DIRECTION( '', ( 1.00000000000000, 0.000000000000000, 0.000000000000000 ) );
#180 = SURFACE_STYLE_FILL_AREA( #253 );
#181 = ORIENTED_EDGE( '', *, *, #254, .F. );
#182 = ORIENTED_EDGE( '', *, *, #247, .F. );
#183 = CARTESIAN_POINT( '', ( 365.000000000000, 5.00000000000008, 136.000000000000 ) );
#184 = DIRECTION( '', ( -0.000000000000000, -0.000000000000000, 1.00000000000000 ) );
#185 = DIRECTION( '', ( 0.000000000000000, -1.00000000000000, 0.000000000000000 ) );
#186 = SURFACE_STYLE_FILL_AREA( #255 );
#187 = ORIENTED_EDGE( '', *, *, #250, .T. );
#188 = ORIENTED_EDGE( '', *, *, #256, .F. );
#189 = ORIENTED_EDGE( '', *, *, #257, .F. );
#190 = ORIENTED_EDGE( '', *, *, #258, .T. );
#191 = CARTESIAN_POINT( '', ( 448.000000000000, -31.0000000000000, 136.000000000000 ) );
#192 = DIRECTION( '', ( -1.00000000000000, 0.000000000000000, 0.000000000000000 ) );
#193 = DIRECTION( '', ( 0.000000000000000, 0.000000000000000, 1.00000000000000 ) );
#194 = SURFACE_STYLE_FILL_AREA( #259 );
#195 = ORIENTED_EDGE( '', *, *, #260, .F. );
#196 = ORIENTED_EDGE( '', *, *, #246, .F. );
#197 = CARTESIAN_POINT( '', ( 412.000000000000, 5.00000000000000, 136.000000000000 ) );
#198 = DIRECTION( '', ( -0.000000000000000, -0.000000000000000, 1.00000000000000 ) );
#199 = DIRECTION( '', ( 0.000000000000000, -1.00000000000000, 0.000000000000000 ) );
#200 = SURFACE_STYLE_FILL_AREA( #261 );
#201 = ORIENTED_EDGE( '', *, *, #252, .T. );
#202 = ORIENTED_EDGE( '', *, *, #262, .F. );
#203 = ORIENTED_EDGE( '', *, *, #263, .F. );
#204 = ORIENTED_EDGE( '', *, *, #264, .T. );
#205 = CARTESIAN_POINT( '', ( -448.000000000000, 31.0000000000000, 136.000000000000 ) );
#206 = DIRECTION( '', ( 1.00000000000000, 0.000000000000000, 0.000000000000000 ) );
#207 = DIRECTION( '', ( 0.000000000000000, 0.000000000000000, -1.00000000000000 ) );
#208 = SURFACE_STYLE_FILL_AREA( #265 );
#209 = ORIENTED_EDGE( '', *, *, #266, .F. );
#210 = ORIENTED_EDGE( '', *, *, #248, .F. );
#211 = CARTESIAN_POINT( '', ( -365.000000000000, 5.00000000000000, 136.000000000000 ) );
#212 = DIRECTION( '', ( -0.000000000000000, -0.000000000000000, 1.00000000000000 ) );
#213 = DIRECTION( '', ( 0.000000000000000, -1.00000000000000, 0.000000000000000 ) );
#214 = SURFACE_STYLE_FILL_AREA( #267 );
#215 = ORIENTED_EDGE( '', *, *, #243, .T. );
#216 = ORIENTED_EDGE( '', *, *, #260, .T. );
#217 = ORIENTED_EDGE( '', *, *, #254, .T. );
#218 = ORIENTED_EDGE( '', *, *, #266, .T. );
#219 = ORIENTED_EDGE( '', *, *, #268, .T. );
#220 = ORIENTED_EDGE( '', *, *, #263, .T. );
#221 = ORIENTED_EDGE( '', *, *, #269, .T. );
#222 = ORIENTED_EDGE( '', *, *, #257, .T. );
#223 = CARTESIAN_POINT( '', ( -448.000000000000, 31.0000000000000, 136.000000000000 ) );
#224 = DIRECTION( '', ( 0.000000000000000, 0.000000000000000, 1.00000000000000 ) );
#225 = DIRECTION( '', ( 1.00000000000000, 0.000000000000000, 0.000000000000000 ) );
#226 = SURFACE_STYLE_FILL_AREA( #270 );
#227 = ORIENTED_EDGE( '', *, *, #249, .T. );
#228 = ORIENTED_EDGE( '', *, *, #264, .F. );
#229 = ORIENTED_EDGE( '', *, *, #268, .F. );
#230 = ORIENTED_EDGE( '', *, *, #256, .T. );
#231 = CARTESIAN_POINT( '', ( 448.000000000000, 31.0000000000000, 136.000000000000 ) );
#232 = DIRECTION( '', ( -3.48493555441769E-017, -1.00000000000000, 0.000000000000000 ) );
#233 = DIRECTION( '', ( 1.00000000000000, -3.48493555441769E-017, 0.000000000000000 ) );
#234 = SURFACE_STYLE_FILL_AREA( #271 );
#235 = ORIENTED_EDGE( '', *, *, #251, .T. );
#236 = ORIENTED_EDGE( '', *, *, #258, .F. );
#237 = ORIENTED_EDGE( '', *, *, #269, .F. );
#238 = ORIENTED_EDGE( '', *, *, #262, .T. );
#239 = CARTESIAN_POINT( '', ( -448.000000000000, -31.0000000000000, 136.000000000000 ) );
#240 = DIRECTION( '', ( 5.80822592402949E-017, 1.00000000000000, 0.000000000000000 ) );
#241 = DIRECTION( '', ( -1.00000000000000, 5.80822592402949E-017, 0.000000000000000 ) );
#242 = FILL_AREA_STYLE( '', ( #272 ) );
#243 = EDGE_CURVE( '', #273, #273, #274, .T. );
#244 = EDGE_CURVE( '', #275, #275, #276, .T. );
#245 = FILL_AREA_STYLE( '', ( #277 ) );
#246 = EDGE_CURVE( '', #278, #278, #279, .T. );
#247 = EDGE_CURVE( '', #280, #280, #281, .T. );
#248 = EDGE_CURVE( '', #282, #282, #283, .T. );
#249 = EDGE_CURVE( '', #284, #285, #286, .T. );
#250 = EDGE_CURVE( '', #287, #284, #288, .T. );
#251 = EDGE_CURVE( '', #289, #287, #290, .T. );
#252 = EDGE_CURVE( '', #285, #289, #291, .T. );
#253 = FILL_AREA_STYLE( '', ( #292 ) );
#254 = EDGE_CURVE( '', #293, #293, #294, .T. );
#255 = FILL_AREA_STYLE( '', ( #295 ) );
#256 = EDGE_CURVE( '', #296, #284, #297, .T. );
#257 = EDGE_CURVE( '', #298, #296, #299, .T. );
#258 = EDGE_CURVE( '', #298, #287, #300, .T. );
#259 = FILL_AREA_STYLE( '', ( #301 ) );
#260 = EDGE_CURVE( '', #302, #302, #303, .T. );
#261 = FILL_AREA_STYLE( '', ( #304 ) );
#262 = EDGE_CURVE( '', #305, #289, #306, .T. );
#263 = EDGE_CURVE( '', #307, #305, #308, .T. );
#264 = EDGE_CURVE( '', #307, #285, #309, .T. );
#265 = FILL_AREA_STYLE( '', ( #310 ) );
#266 = EDGE_CURVE( '', #311, #311, #312, .T. );
#267 = FILL_AREA_STYLE( '', ( #313 ) );
#268 = EDGE_CURVE( '', #296, #307, #314, .T. );
#269 = EDGE_CURVE( '', #305, #298, #315, .T. );
#270 = FILL_AREA_STYLE( '', ( #316 ) );
#271 = FILL_AREA_STYLE( '', ( #317 ) );
#272 = FILL_AREA_STYLE_COLOUR( '', #318 );
#273 = VERTEX_POINT( '', #319 );
#274 = CIRCLE( '', #320, 21.0000000000000 );
#275 = VERTEX_POINT( '', #321 );
#276 = CIRCLE( '', #322, 21.0000000000000 );
#277 = FILL_AREA_STYLE_COLOUR( '', #323 );
#278 = VERTEX_POINT( '', #324 );
#279 = CIRCLE( '', #325, 21.0000000000000 );
#280 = VERTEX_POINT( '', #326 );
#281 = CIRCLE( '', #327, 9.00000000000000 );
#282 = VERTEX_POINT( '', #328 );
#283 = CIRCLE( '', #329, 9.00000000000000 );
#284 = VERTEX_POINT( '', #330 );
#285 = VERTEX_POINT( '', #331 );
#286 = LINE( '', #332, #333 );
#287 = VERTEX_POINT( '', #334 );
#288 = LINE( '', #335, #336 );
#289 = VERTEX_POINT( '', #337 );
#290 = LINE( '', #338, #339 );
#291 = LINE( '', #340, #341 );
#292 = FILL_AREA_STYLE_COLOUR( '', #342 );
#293 = VERTEX_POINT( '', #343 );
#294 = CIRCLE( '', #344, 9.00000000000000 );
#295 = FILL_AREA_STYLE_COLOUR( '', #345 );
#296 = VERTEX_POINT( '', #346 );
#297 = LINE( '', #347, #348 );
#298 = VERTEX_POINT( '', #349 );
#299 = LINE( '', #350, #351 );
#300 = LINE( '', #352, #353 );
#301 = FILL_AREA_STYLE_COLOUR( '', #354 );
#302 = VERTEX_POINT( '', #355 );
#303 = CIRCLE( '', #356, 21.0000000000000 );
#304 = FILL_AREA_STYLE_COLOUR( '', #357 );
#305 = VERTEX_POINT( '', #358 );
#306 = LINE( '', #359, #360 );
#307 = VERTEX_POINT( '', #361 );
#308 = LINE( '', #362, #363 );
#309 = LINE( '', #364, #365 );
#310 = FILL_AREA_STYLE_COLOUR( '', #366 );
#311 = VERTEX_POINT( '', #367 );
#312 = CIRCLE( '', #368, 9.00000000000000 );
#313 = FILL_AREA_STYLE_COLOUR( '', #369 );
#314 = LINE( '', #370, #371 );
#315 = LINE( '', #372, #373 );
#316 = FILL_AREA_STYLE_COLOUR( '', #374 );
#317 = FILL_AREA_STYLE_COLOUR( '', #375 );
#318 = COLOUR_RGB( '', 0.752941191196442, 0.752941191196442, 0.752941191196442 );
#319 = CARTESIAN_POINT( '', ( -412.000000000000, -16.0000000000000, 136.000000000000 ) );
#320 = AXIS2_PLACEMENT_3D( '', #376, #377, #378 );
#321 = CARTESIAN_POINT( '', ( -391.000000000000, 5.00000000000000, 0.000000000000000 ) );
#322 = AXIS2_PLACEMENT_3D( '', #379, #380, #381 );
#323 = COLOUR_RGB( '', 0.752941191196442, 0.752941191196442, 0.752941191196442 );
#324 = CARTESIAN_POINT( '', ( 433.000000000000, 5.00000000000000, 0.000000000000000 ) );
#325 = AXIS2_PLACEMENT_3D( '', #382, #383, #384 );
#326 = CARTESIAN_POINT( '', ( 374.000000000000, 5.00000000000008, 0.000000000000000 ) );
#327 = AXIS2_PLACEMENT_3D( '', #385, #386, #387 );
#328 = CARTESIAN_POINT( '', ( -356.000000000000, 5.00000000000000, 0.000000000000000 ) );
#329 = AXIS2_PLACEMENT_3D( '', #388, #389, #390 );
#330 = CARTESIAN_POINT( '', ( 448.000000000000, 31.0000000000000, 0.000000000000000 ) );
#331 = CARTESIAN_POINT( '', ( -448.000000000000, 31.0000000000000, 0.000000000000000 ) );
#332 = CARTESIAN_POINT( '', ( 448.000000000000, 31.0000000000000, 0.000000000000000 ) );
#333 = VECTOR( '', #391, 1000.00000000000 );
#334 = CARTESIAN_POINT( '', ( 448.000000000000, -31.0000000000000, 0.000000000000000 ) );
#335 = CARTESIAN_POINT( '', ( 448.000000000000, -31.0000000000000, 0.000000000000000 ) );
#336 = VECTOR( '', #392, 1000.00000000000 );
#337 = CARTESIAN_POINT( '', ( -448.000000000000, -31.0000000000000, 0.000000000000000 ) );
#338 = CARTESIAN_POINT( '', ( -448.000000000000, -31.0000000000000, 0.000000000000000 ) );
#339 = VECTOR( '', #393, 1000.00000000000 );
#340 = CARTESIAN_POINT( '', ( -448.000000000000, 31.0000000000000, 0.000000000000000 ) );
#341 = VECTOR( '', #394, 1000.00000000000 );
#342 = COLOUR_RGB( '', 0.752941191196442, 0.752941191196442, 0.752941191196442 );
#343 = CARTESIAN_POINT( '', ( 365.000000000000, -3.99999999999992, 136.000000000000 ) );
#344 = AXIS2_PLACEMENT_3D( '', #395, #396, #397 );
#345 = COLOUR_RGB( '', 0.752941191196442, 0.752941191196442, 0.752941191196442 );
#346 = CARTESIAN_POINT( '', ( 448.000000000000, 31.0000000000000, 136.000000000000 ) );
#347 = CARTESIAN_POINT( '', ( 448.000000000000, 31.0000000000000, 136.000000000000 ) );
#348 = VECTOR( '', #398, 1000.00000000000 );
#349 = CARTESIAN_POINT( '', ( 448.000000000000, -31.0000000000000, 136.000000000000 ) );
#350 = CARTESIAN_POINT( '', ( 448.000000000000, -31.0000000000000, 136.000000000000 ) );
#351 = VECTOR( '', #399, 1000.00000000000 );
#352 = CARTESIAN_POINT( '', ( 448.000000000000, -31.0000000000000, 136.000000000000 ) );
#353 = VECTOR( '', #400, 1000.00000000000 );
#354 = COLOUR_RGB( '', 0.752941191196442, 0.752941191196442, 0.752941191196442 );
#355 = CARTESIAN_POINT( '', ( 412.000000000000, -16.0000000000000, 136.000000000000 ) );
#356 = AXIS2_PLACEMENT_3D( '', #401, #402, #403 );
#357 = COLOUR_RGB( '', 0.752941191196442, 0.752941191196442, 0.752941191196442 );
#358 = CARTESIAN_POINT( '', ( -448.000000000000, -31.0000000000000, 136.000000000000 ) );
#359 = CARTESIAN_POINT( '', ( -448.000000000000, -31.0000000000000, 136.000000000000 ) );
#360 = VECTOR( '', #404, 1000.00000000000 );
#361 = CARTESIAN_POINT( '', ( -448.000000000000, 31.0000000000000, 136.000000000000 ) );
#362 = CARTESIAN_POINT( '', ( -448.000000000000, 31.0000000000000, 136.000000000000 ) );
#363 = VECTOR( '', #405, 1000.00000000000 );
#364 = CARTESIAN_POINT( '', ( -448.000000000000, 31.0000000000000, 136.000000000000 ) );
#365 = VECTOR( '', #406, 1000.00000000000 );
#366 = COLOUR_RGB( '', 0.752941191196442, 0.752941191196442, 0.752941191196442 );
#367 = CARTESIAN_POINT( '', ( -365.000000000000, -4.00000000000000, 136.000000000000 ) );
#368 = AXIS2_PLACEMENT_3D( '', #407, #408, #409 );
#369 = COLOUR_RGB( '', 0.752941191196442, 0.752941191196442, 0.752941191196442 );
#370 = CARTESIAN_POINT( '', ( 448.000000000000, 31.0000000000000, 136.000000000000 ) );
#371 = VECTOR( '', #410, 1000.00000000000 );
#372 = CARTESIAN_POINT( '', ( -448.000000000000, -31.0000000000000, 136.000000000000 ) );
#373 = VECTOR( '', #411, 1000.00000000000 );
#374 = COLOUR_RGB( '', 0.752941191196442, 0.752941191196442, 0.752941191196442 );
#375 = COLOUR_RGB( '', 0.752941191196442, 0.752941191196442, 0.752941191196442 );
#376 = CARTESIAN_POINT( '', ( -412.000000000000, 5.00000000000000, 136.000000000000 ) );
#377 = DIRECTION( '', ( 0.000000000000000, 0.000000000000000, -1.00000000000000 ) );
#378 = DIRECTION( '', ( 0.000000000000000, -1.00000000000000, 0.000000000000000 ) );
#379 = CARTESIAN_POINT( '', ( -412.000000000000, 5.00000000000000, 0.000000000000000 ) );
#380 = DIRECTION( '', ( 0.000000000000000, 0.000000000000000, 1.00000000000000 ) );
#381 = DIRECTION( '', ( 1.00000000000000, 0.000000000000000, 0.000000000000000 ) );
#382 = CARTESIAN_POINT( '', ( 412.000000000000, 5.00000000000000, 0.000000000000000 ) );
#383 = DIRECTION( '', ( 0.000000000000000, 0.000000000000000, 1.00000000000000 ) );
#384 = DIRECTION( '', ( 1.00000000000000, 0.000000000000000, 0.000000000000000 ) );
#385 = CARTESIAN_POINT( '', ( 365.000000000000, 5.00000000000008, 0.000000000000000 ) );
#386 = DIRECTION( '', ( 0.000000000000000, 0.000000000000000, 1.00000000000000 ) );
#387 = DIRECTION( '', ( 1.00000000000000, 0.000000000000000, 0.000000000000000 ) );
#388 = CARTESIAN_POINT( '', ( -365.000000000000, 5.00000000000000, 0.000000000000000 ) );
#389 = DIRECTION( '', ( 0.000000000000000, 0.000000000000000, 1.00000000000000 ) );
#390 = DIRECTION( '', ( 1.00000000000000, 0.000000000000000, 0.000000000000000 ) );
#391 = DIRECTION( '', ( -1.00000000000000, 3.48493555441769E-017, 0.000000000000000 ) );
#392 = DIRECTION( '', ( 0.000000000000000, 1.00000000000000, 0.000000000000000 ) );
#393 = DIRECTION( '', ( 1.00000000000000, -5.80822592402949E-017, 0.000000000000000 ) );
#394 = DIRECTION( '', ( 0.000000000000000, -1.00000000000000, 0.000000000000000 ) );
#395 = CARTESIAN_POINT( '', ( 365.000000000000, 5.00000000000008, 136.000000000000 ) );
#396 = DIRECTION( '', ( 0.000000000000000, 0.000000000000000, -1.00000000000000 ) );
#397 = DIRECTION( '', ( 0.000000000000000, -1.00000000000000, 0.000000000000000 ) );
#398 = DIRECTION( '', ( 0.000000000000000, 0.000000000000000, -1.00000000000000 ) );
#399 = DIRECTION( '', ( 0.000000000000000, 1.00000000000000, 0.000000000000000 ) );
#400 = DIRECTION( '', ( 0.000000000000000, 0.000000000000000, -1.00000000000000 ) );
#401 = CARTESIAN_POINT( '', ( 412.000000000000, 5.00000000000000, 136.000000000000 ) );
#402 = DIRECTION( '', ( 0.000000000000000, 0.000000000000000, -1.00000000000000 ) );
#403 = DIRECTION( '', ( 0.000000000000000, -1.00000000000000, 0.000000000000000 ) );
#404 = DIRECTION( '', ( 0.000000000000000, 0.000000000000000, -1.00000000000000 ) );
#405 = DIRECTION( '', ( 0.000000000000000, -1.00000000000000, 0.000000000000000 ) );
#406 = DIRECTION( '', ( 0.000000000000000, 0.000000000000000, -1.00000000000000 ) );
#407 = CARTESIAN_POINT( '', ( -365.000000000000, 5.00000000000000, 136.000000000000 ) );
#408 = DIRECTION( '', ( 0.000000000000000, 0.000000000000000, -1.00000000000000 ) );
#409 = DIRECTION( '', ( 0.000000000000000, -1.00000000000000, 0.000000000000000 ) );
#410 = DIRECTION( '', ( -1.00000000000000, 3.48493555441769E-017, 0.000000000000000 ) );
#411 = DIRECTION( '', ( 1.00000000000000, -5.80822592402949E-017, 0.000000000000000 ) );
ENDSEC;
END-ISO-10303-21;
