ISO-10303-21;
HEADER;
FILE_DESCRIPTION( ( 'Unknown' ), '1' );
FILE_NAME( 'M:/Piezas_3D/Placas_Par/G2/OS_G2_446x596x136_.stp', 'Unknown', ( 'Unknown' ), ( 'Unknown' ), 'PSStep 16.0.42', 'Unknown', '  ' );
FILE_SCHEMA( ( 'AUTOMOTIVE_DESIGN { 1 0 10303 214 1 1 1 1 }' ) );
ENDSEC;
DATA;
#1 = MECHANICAL_DESIGN_GEOMETRIC_PRESENTATION_REPRESENTATION( ' ', ( #10, #11, #12, #13, #14, #15, #16, #17, #18, #19 ), #6 );
#2 = PRODUCT_DEFINITION_CONTEXT( '', #20, 'design' );
#3 = APPLICATION_PROTOCOL_DEFINITION( 'international standard', 'automotive_design', 2001, #20 );
#4 = PRODUCT_CATEGORY_RELATIONSHIP( 'NONE', 'NONE', #21, #22 );
#5 = SHAPE_DEFINITION_REPRESENTATION( #23, #24 );
#6 =  ( GEOMETRIC_REPRESENTATION_CONTEXT( 3 )GLOBAL_UNCERTAINTY_ASSIGNED_CONTEXT( ( #27 ) )GLOBAL_UNIT_ASSIGNED_CONTEXT( ( #29, #30, #31 ) )REPRESENTATION_CONTEXT( 'NONE', 'WORKSPACE' ) );
#10 = STYLED_ITEM( '', ( #33 ), #34 );
#11 = STYLED_ITEM( '', ( #35 ), #36 );
#12 = STYLED_ITEM( '', ( #37 ), #38 );
#13 = STYLED_ITEM( '', ( #39 ), #40 );
#14 = STYLED_ITEM( '', ( #41 ), #42 );
#15 = STYLED_ITEM( '', ( #43 ), #44 );
#16 = STYLED_ITEM( '', ( #45 ), #46 );
#17 = STYLED_ITEM( '', ( #47 ), #48 );
#18 = STYLED_ITEM( '', ( #49 ), #50 );
#19 = STYLED_ITEM( '', ( #51 ), #52 );
#20 = APPLICATION_CONTEXT( 'core data for automotive mechanical design processes' );
#21 = PRODUCT_CATEGORY( 'part', 'NONE' );
#22 = PRODUCT_RELATED_PRODUCT_CATEGORY( 'detail', ' ', ( #53 ) );
#23 = PRODUCT_DEFINITION_SHAPE( 'NONE', 'NONE', #54 );
#24 = ADVANCED_BREP_SHAPE_REPRESENTATION( '1', ( #55, #56 ), #6 );
#27 = UNCERTAINTY_MEASURE_WITH_UNIT( LENGTH_MEASURE( 0.00100000000000000 ), #29, '', '' );
#29 =  ( CONVERSION_BASED_UNIT( 'MILLIMETRE', #59 )LENGTH_UNIT(  )NAMED_UNIT( #62 ) );
#30 =  ( NAMED_UNIT( #64 )PLANE_ANGLE_UNIT(  )SI_UNIT( $, .RADIAN. ) );
#31 =  ( NAMED_UNIT( #64 )SI_UNIT( $, .STERADIAN. )SOLID_ANGLE_UNIT(  ) );
#33 = PRESENTATION_STYLE_ASSIGNMENT( ( #70 ) );
#34 = ADVANCED_FACE( '', ( #71 ), #72, .F. );
#35 = PRESENTATION_STYLE_ASSIGNMENT( ( #73 ) );
#36 = ADVANCED_FACE( '', ( #74, #75, #76, #77, #78 ), #79, .T. );
#37 = PRESENTATION_STYLE_ASSIGNMENT( ( #80 ) );
#38 = ADVANCED_FACE( '', ( #81 ), #82, .F. );
#39 = PRESENTATION_STYLE_ASSIGNMENT( ( #83 ) );
#40 = ADVANCED_FACE( '', ( #84 ), #85, .F. );
#41 = PRESENTATION_STYLE_ASSIGNMENT( ( #86 ) );
#42 = ADVANCED_FACE( '', ( #87, #88, #89, #90, #91 ), #92, .F. );
#43 = PRESENTATION_STYLE_ASSIGNMENT( ( #93 ) );
#44 = ADVANCED_FACE( '', ( #94, #95 ), #96, .F. );
#45 = PRESENTATION_STYLE_ASSIGNMENT( ( #97 ) );
#46 = ADVANCED_FACE( '', ( #98, #99 ), #100, .F. );
#47 = PRESENTATION_STYLE_ASSIGNMENT( ( #101 ) );
#48 = ADVANCED_FACE( '', ( #102, #103 ), #104, .F. );
#49 = PRESENTATION_STYLE_ASSIGNMENT( ( #105 ) );
#50 = ADVANCED_FACE( '', ( #106, #107 ), #108, .F. );
#51 = PRESENTATION_STYLE_ASSIGNMENT( ( #109 ) );
#52 = ADVANCED_FACE( '', ( #110 ), #111, .F. );
#53 = PRODUCT( '1', '1', 'PART-1-DESC', ( #112 ) );
#54 = PRODUCT_DEFINITION( 'NONE', 'NONE', #113, #2 );
#55 = MANIFOLD_SOLID_BREP( '1', #114 );
#56 = AXIS2_PLACEMENT_3D( '', #115, #116, #117 );
#59 = LENGTH_MEASURE_WITH_UNIT( LENGTH_MEASURE( 1.00000000000000 ), #118 );
#62 = DIMENSIONAL_EXPONENTS( 1.00000000000000, 0.000000000000000, 0.000000000000000, 0.000000000000000, 0.000000000000000, 0.000000000000000, 0.000000000000000 );
#64 = DIMENSIONAL_EXPONENTS( 0.000000000000000, 0.000000000000000, 0.000000000000000, 0.000000000000000, 0.000000000000000, 0.000000000000000, 0.000000000000000 );
#70 = SURFACE_STYLE_USAGE( .BOTH., #119 );
#71 = FACE_OUTER_BOUND( '', #120, .T. );
#72 = PLANE( '', #121 );
#73 = SURFACE_STYLE_USAGE( .BOTH., #122 );
#74 = FACE_BOUND( '', #123, .T. );
#75 = FACE_BOUND( '', #124, .T. );
#76 = FACE_BOUND( '', #125, .T. );
#77 = FACE_BOUND( '', #126, .T. );
#78 = FACE_OUTER_BOUND( '', #127, .T. );
#79 = PLANE( '', #128 );
#80 = SURFACE_STYLE_USAGE( .BOTH., #129 );
#81 = FACE_OUTER_BOUND( '', #130, .T. );
#82 = PLANE( '', #131 );
#83 = SURFACE_STYLE_USAGE( .BOTH., #132 );
#84 = FACE_OUTER_BOUND( '', #133, .T. );
#85 = PLANE( '', #134 );
#86 = SURFACE_STYLE_USAGE( .BOTH., #135 );
#87 = FACE_BOUND( '', #136, .T. );
#88 = FACE_BOUND( '', #137, .T. );
#89 = FACE_BOUND( '', #138, .T. );
#90 = FACE_BOUND( '', #139, .T. );
#91 = FACE_OUTER_BOUND( '', #140, .T. );
#92 = PLANE( '', #141 );
#93 = SURFACE_STYLE_USAGE( .BOTH., #142 );
#94 = FACE_OUTER_BOUND( '', #143, .T. );
#95 = FACE_OUTER_BOUND( '', #144, .T. );
#96 = CYLINDRICAL_SURFACE( '', #145, 21.0000000000000 );
#97 = SURFACE_STYLE_USAGE( .BOTH., #146 );
#98 = FACE_OUTER_BOUND( '', #147, .T. );
#99 = FACE_OUTER_BOUND( '', #148, .T. );
#100 = CYLINDRICAL_SURFACE( '', #149, 9.00000000000000 );
#101 = SURFACE_STYLE_USAGE( .BOTH., #150 );
#102 = FACE_OUTER_BOUND( '', #151, .T. );
#103 = FACE_OUTER_BOUND( '', #152, .T. );
#104 = CYLINDRICAL_SURFACE( '', #153, 21.0000000000000 );
#105 = SURFACE_STYLE_USAGE( .BOTH., #154 );
#106 = FACE_OUTER_BOUND( '', #155, .T. );
#107 = FACE_OUTER_BOUND( '', #156, .T. );
#108 = CYLINDRICAL_SURFACE( '', #157, 9.00000000000000 );
#109 = SURFACE_STYLE_USAGE( .BOTH., #158 );
#110 = FACE_OUTER_BOUND( '', #159, .T. );
#111 = PLANE( '', #160 );
#112 = PRODUCT_CONTEXT( '', #20, 'mechanical' );
#113 = PRODUCT_DEFINITION_FORMATION_WITH_SPECIFIED_SOURCE( ' ', 'NONE', #53, .NOT_KNOWN. );
#114 = CLOSED_SHELL( '', ( #50, #42, #52, #36, #40, #38, #34, #46, #44, #48 ) );
#115 = CARTESIAN_POINT( '', ( 0.000000000000000, 0.000000000000000, 0.000000000000000 ) );
#116 = DIRECTION( '', ( 0.000000000000000, 0.000000000000000, 1.00000000000000 ) );
#117 = DIRECTION( '', ( 1.00000000000000, 0.000000000000000, 0.000000000000000 ) );
#118 =  ( LENGTH_UNIT(  )NAMED_UNIT( #62 )SI_UNIT( .MILLI., .METRE. ) );
#119 = SURFACE_SIDE_STYLE( '', ( #162 ) );
#120 = EDGE_LOOP( '', ( #163, #164, #165, #166 ) );
#121 = AXIS2_PLACEMENT_3D( '', #167, #168, #169 );
#122 = SURFACE_SIDE_STYLE( '', ( #170 ) );
#123 = EDGE_LOOP( '', ( #171 ) );
#124 = EDGE_LOOP( '', ( #172 ) );
#125 = EDGE_LOOP( '', ( #173 ) );
#126 = EDGE_LOOP( '', ( #174 ) );
#127 = EDGE_LOOP( '', ( #175, #176, #177, #178 ) );
#128 = AXIS2_PLACEMENT_3D( '', #179, #180, #181 );
#129 = SURFACE_SIDE_STYLE( '', ( #182 ) );
#130 = EDGE_LOOP( '', ( #183, #184, #185, #186 ) );
#131 = AXIS2_PLACEMENT_3D( '', #187, #188, #189 );
#132 = SURFACE_SIDE_STYLE( '', ( #190 ) );
#133 = EDGE_LOOP( '', ( #191, #192, #193, #194 ) );
#134 = AXIS2_PLACEMENT_3D( '', #195, #196, #197 );
#135 = SURFACE_SIDE_STYLE( '', ( #198 ) );
#136 = EDGE_LOOP( '', ( #199 ) );
#137 = EDGE_LOOP( '', ( #200 ) );
#138 = EDGE_LOOP( '', ( #201 ) );
#139 = EDGE_LOOP( '', ( #202 ) );
#140 = EDGE_LOOP( '', ( #203, #204, #205, #206 ) );
#141 = AXIS2_PLACEMENT_3D( '', #207, #208, #209 );
#142 = SURFACE_SIDE_STYLE( '', ( #210 ) );
#143 = EDGE_LOOP( '', ( #211 ) );
#144 = EDGE_LOOP( '', ( #212 ) );
#145 = AXIS2_PLACEMENT_3D( '', #213, #214, #215 );
#146 = SURFACE_SIDE_STYLE( '', ( #216 ) );
#147 = EDGE_LOOP( '', ( #217 ) );
#148 = EDGE_LOOP( '', ( #218 ) );
#149 = AXIS2_PLACEMENT_3D( '', #219, #220, #221 );
#150 = SURFACE_SIDE_STYLE( '', ( #222 ) );
#151 = EDGE_LOOP( '', ( #223 ) );
#152 = EDGE_LOOP( '', ( #224 ) );
#153 = AXIS2_PLACEMENT_3D( '', #225, #226, #227 );
#154 = SURFACE_SIDE_STYLE( '', ( #228 ) );
#155 = EDGE_LOOP( '', ( #229 ) );
#156 = EDGE_LOOP( '', ( #230 ) );
#157 = AXIS2_PLACEMENT_3D( '', #231, #232, #233 );
#158 = SURFACE_SIDE_STYLE( '', ( #234 ) );
#159 = EDGE_LOOP( '', ( #235, #236, #237, #238 ) );
#160 = AXIS2_PLACEMENT_3D( '', #239, #240, #241 );
#162 = SURFACE_STYLE_FILL_AREA( #242 );
#163 = ORIENTED_EDGE( '', *, *, #243, .T. );
#164 = ORIENTED_EDGE( '', *, *, #244, .F. );
#165 = ORIENTED_EDGE( '', *, *, #245, .F. );
#166 = ORIENTED_EDGE( '', *, *, #246, .T. );
#167 = CARTESIAN_POINT( '', ( -298.000000000000, 31.0000000000000, 136.000000000000 ) );
#168 = DIRECTION( '', ( 1.00000000000000, 0.000000000000000, 0.000000000000000 ) );
#169 = DIRECTION( '', ( 0.000000000000000, 0.000000000000000, -1.00000000000000 ) );
#170 = SURFACE_STYLE_FILL_AREA( #247 );
#171 = ORIENTED_EDGE( '', *, *, #248, .T. );
#172 = ORIENTED_EDGE( '', *, *, #249, .T. );
#173 = ORIENTED_EDGE( '', *, *, #250, .T. );
#174 = ORIENTED_EDGE( '', *, *, #251, .T. );
#175 = ORIENTED_EDGE( '', *, *, #252, .T. );
#176 = ORIENTED_EDGE( '', *, *, #245, .T. );
#177 = ORIENTED_EDGE( '', *, *, #253, .T. );
#178 = ORIENTED_EDGE( '', *, *, #254, .T. );
#179 = CARTESIAN_POINT( '', ( -298.000000000000, 31.0000000000000, 136.000000000000 ) );
#180 = DIRECTION( '', ( 0.000000000000000, 0.000000000000000, 1.00000000000000 ) );
#181 = DIRECTION( '', ( 1.00000000000000, 0.000000000000000, 0.000000000000000 ) );
#182 = SURFACE_STYLE_FILL_AREA( #255 );
#183 = ORIENTED_EDGE( '', *, *, #256, .T. );
#184 = ORIENTED_EDGE( '', *, *, #246, .F. );
#185 = ORIENTED_EDGE( '', *, *, #252, .F. );
#186 = ORIENTED_EDGE( '', *, *, #257, .T. );
#187 = CARTESIAN_POINT( '', ( 298.000000000000, 31.0000000000000, 136.000000000000 ) );
#188 = DIRECTION( '', ( -2.91060985902149E-017, -1.00000000000000, 0.000000000000000 ) );
#189 = DIRECTION( '', ( 1.00000000000000, -2.91060985902149E-017, 0.000000000000000 ) );
#190 = SURFACE_STYLE_FILL_AREA( #258 );
#191 = ORIENTED_EDGE( '', *, *, #259, .T. );
#192 = ORIENTED_EDGE( '', *, *, #260, .F. );
#193 = ORIENTED_EDGE( '', *, *, #253, .F. );
#194 = ORIENTED_EDGE( '', *, *, #244, .T. );
#195 = CARTESIAN_POINT( '', ( -298.000000000000, -31.0000000000000, 136.000000000000 ) );
#196 = DIRECTION( '', ( 5.82121971804298E-017, 1.00000000000000, 0.000000000000000 ) );
#197 = DIRECTION( '', ( -1.00000000000000, 5.82121971804298E-017, 0.000000000000000 ) );
#198 = SURFACE_STYLE_FILL_AREA( #261 );
#199 = ORIENTED_EDGE( '', *, *, #262, .T. );
#200 = ORIENTED_EDGE( '', *, *, #263, .T. );
#201 = ORIENTED_EDGE( '', *, *, #264, .T. );
#202 = ORIENTED_EDGE( '', *, *, #265, .T. );
#203 = ORIENTED_EDGE( '', *, *, #256, .F. );
#204 = ORIENTED_EDGE( '', *, *, #266, .F. );
#205 = ORIENTED_EDGE( '', *, *, #259, .F. );
#206 = ORIENTED_EDGE( '', *, *, #243, .F. );
#207 = CARTESIAN_POINT( '', ( -298.000000000000, 31.0000000000000, 0.000000000000000 ) );
#208 = DIRECTION( '', ( 0.000000000000000, 0.000000000000000, 1.00000000000000 ) );
#209 = DIRECTION( '', ( 1.00000000000000, 0.000000000000000, 0.000000000000000 ) );
#210 = SURFACE_STYLE_FILL_AREA( #267 );
#211 = ORIENTED_EDGE( '', *, *, #249, .F. );
#212 = ORIENTED_EDGE( '', *, *, #263, .F. );
#213 = CARTESIAN_POINT( '', ( 262.000000000000, 5.00000000000000, 136.000000000000 ) );
#214 = DIRECTION( '', ( -0.000000000000000, -0.000000000000000, 1.00000000000000 ) );
#215 = DIRECTION( '', ( 0.000000000000000, -1.00000000000000, 0.000000000000000 ) );
#216 = SURFACE_STYLE_FILL_AREA( #268 );
#217 = ORIENTED_EDGE( '', *, *, #250, .F. );
#218 = ORIENTED_EDGE( '', *, *, #264, .F. );
#219 = CARTESIAN_POINT( '', ( 215.000000000000, 5.00000000000006, 136.000000000000 ) );
#220 = DIRECTION( '', ( -0.000000000000000, -0.000000000000000, 1.00000000000000 ) );
#221 = DIRECTION( '', ( 0.000000000000000, -1.00000000000000, 0.000000000000000 ) );
#222 = SURFACE_STYLE_FILL_AREA( #269 );
#223 = ORIENTED_EDGE( '', *, *, #248, .F. );
#224 = ORIENTED_EDGE( '', *, *, #262, .F. );
#225 = CARTESIAN_POINT( '', ( -262.000000000000, 5.00000000000000, 136.000000000000 ) );
#226 = DIRECTION( '', ( -0.000000000000000, -0.000000000000000, 1.00000000000000 ) );
#227 = DIRECTION( '', ( 0.000000000000000, -1.00000000000000, 0.000000000000000 ) );
#228 = SURFACE_STYLE_FILL_AREA( #270 );
#229 = ORIENTED_EDGE( '', *, *, #251, .F. );
#230 = ORIENTED_EDGE( '', *, *, #265, .F. );
#231 = CARTESIAN_POINT( '', ( -215.000000000000, 5.00000000000000, 136.000000000000 ) );
#232 = DIRECTION( '', ( -0.000000000000000, -0.000000000000000, 1.00000000000000 ) );
#233 = DIRECTION( '', ( 0.000000000000000, -1.00000000000000, 0.000000000000000 ) );
#234 = SURFACE_STYLE_FILL_AREA( #271 );
#235 = ORIENTED_EDGE( '', *, *, #266, .T. );
#236 = ORIENTED_EDGE( '', *, *, #257, .F. );
#237 = ORIENTED_EDGE( '', *, *, #254, .F. );
#238 = ORIENTED_EDGE( '', *, *, #260, .T. );
#239 = CARTESIAN_POINT( '', ( 298.000000000000, -31.0000000000000, 136.000000000000 ) );
#240 = DIRECTION( '', ( -1.00000000000000, 0.000000000000000, 0.000000000000000 ) );
#241 = DIRECTION( '', ( 0.000000000000000, 0.000000000000000, 1.00000000000000 ) );
#242 = FILL_AREA_STYLE( '', ( #272 ) );
#243 = EDGE_CURVE( '', #273, #274, #275, .T. );
#244 = EDGE_CURVE( '', #276, #274, #277, .T. );
#245 = EDGE_CURVE( '', #278, #276, #279, .T. );
#246 = EDGE_CURVE( '', #278, #273, #280, .T. );
#247 = FILL_AREA_STYLE( '', ( #281 ) );
#248 = EDGE_CURVE( '', #282, #282, #283, .T. );
#249 = EDGE_CURVE( '', #284, #284, #285, .T. );
#250 = EDGE_CURVE( '', #286, #286, #287, .T. );
#251 = EDGE_CURVE( '', #288, #288, #289, .T. );
#252 = EDGE_CURVE( '', #290, #278, #291, .T. );
#253 = EDGE_CURVE( '', #276, #292, #293, .T. );
#254 = EDGE_CURVE( '', #292, #290, #294, .T. );
#255 = FILL_AREA_STYLE( '', ( #295 ) );
#256 = EDGE_CURVE( '', #296, #273, #297, .T. );
#257 = EDGE_CURVE( '', #290, #296, #298, .T. );
#258 = FILL_AREA_STYLE( '', ( #299 ) );
#259 = EDGE_CURVE( '', #274, #300, #301, .T. );
#260 = EDGE_CURVE( '', #292, #300, #302, .T. );
#261 = FILL_AREA_STYLE( '', ( #303 ) );
#262 = EDGE_CURVE( '', #304, #304, #305, .T. );
#263 = EDGE_CURVE( '', #306, #306, #307, .T. );
#264 = EDGE_CURVE( '', #308, #308, #309, .T. );
#265 = EDGE_CURVE( '', #310, #310, #311, .T. );
#266 = EDGE_CURVE( '', #300, #296, #312, .T. );
#267 = FILL_AREA_STYLE( '', ( #313 ) );
#268 = FILL_AREA_STYLE( '', ( #314 ) );
#269 = FILL_AREA_STYLE( '', ( #315 ) );
#270 = FILL_AREA_STYLE( '', ( #316 ) );
#271 = FILL_AREA_STYLE( '', ( #317 ) );
#272 = FILL_AREA_STYLE_COLOUR( '', #318 );
#273 = VERTEX_POINT( '', #319 );
#274 = VERTEX_POINT( '', #320 );
#275 = LINE( '', #321, #322 );
#276 = VERTEX_POINT( '', #323 );
#277 = LINE( '', #324, #325 );
#278 = VERTEX_POINT( '', #326 );
#279 = LINE( '', #327, #328 );
#280 = LINE( '', #329, #330 );
#281 = FILL_AREA_STYLE_COLOUR( '', #331 );
#282 = VERTEX_POINT( '', #332 );
#283 = CIRCLE( '', #333, 21.0000000000000 );
#284 = VERTEX_POINT( '', #334 );
#285 = CIRCLE( '', #335, 21.0000000000000 );
#286 = VERTEX_POINT( '', #336 );
#287 = CIRCLE( '', #337, 9.00000000000000 );
#288 = VERTEX_POINT( '', #338 );
#289 = CIRCLE( '', #339, 9.00000000000000 );
#290 = VERTEX_POINT( '', #340 );
#291 = LINE( '', #341, #342 );
#292 = VERTEX_POINT( '', #343 );
#293 = LINE( '', #344, #345 );
#294 = LINE( '', #346, #347 );
#295 = FILL_AREA_STYLE_COLOUR( '', #348 );
#296 = VERTEX_POINT( '', #349 );
#297 = LINE( '', #350, #351 );
#298 = LINE( '', #352, #353 );
#299 = FILL_AREA_STYLE_COLOUR( '', #354 );
#300 = VERTEX_POINT( '', #355 );
#301 = LINE( '', #356, #357 );
#302 = LINE( '', #358, #359 );
#303 = FILL_AREA_STYLE_COLOUR( '', #360 );
#304 = VERTEX_POINT( '', #361 );
#305 = CIRCLE( '', #362, 21.0000000000000 );
#306 = VERTEX_POINT( '', #363 );
#307 = CIRCLE( '', #364, 21.0000000000000 );
#308 = VERTEX_POINT( '', #365 );
#309 = CIRCLE( '', #366, 9.00000000000000 );
#310 = VERTEX_POINT( '', #367 );
#311 = CIRCLE( '', #368, 9.00000000000000 );
#312 = LINE( '', #369, #370 );
#313 = FILL_AREA_STYLE_COLOUR( '', #371 );
#314 = FILL_AREA_STYLE_COLOUR( '', #372 );
#315 = FILL_AREA_STYLE_COLOUR( '', #373 );
#316 = FILL_AREA_STYLE_COLOUR( '', #374 );
#317 = FILL_AREA_STYLE_COLOUR( '', #375 );
#318 = COLOUR_RGB( '', 0.752941191196442, 0.752941191196442, 0.752941191196442 );
#319 = CARTESIAN_POINT( '', ( -298.000000000000, 31.0000000000000, 0.000000000000000 ) );
#320 = CARTESIAN_POINT( '', ( -298.000000000000, -31.0000000000000, 0.000000000000000 ) );
#321 = CARTESIAN_POINT( '', ( -298.000000000000, 31.0000000000000, 0.000000000000000 ) );
#322 = VECTOR( '', #376, 1000.00000000000 );
#323 = CARTESIAN_POINT( '', ( -298.000000000000, -31.0000000000000, 136.000000000000 ) );
#324 = CARTESIAN_POINT( '', ( -298.000000000000, -31.0000000000000, 136.000000000000 ) );
#325 = VECTOR( '', #377, 1000.00000000000 );
#326 = CARTESIAN_POINT( '', ( -298.000000000000, 31.0000000000000, 136.000000000000 ) );
#327 = CARTESIAN_POINT( '', ( -298.000000000000, 31.0000000000000, 136.000000000000 ) );
#328 = VECTOR( '', #378, 1000.00000000000 );
#329 = CARTESIAN_POINT( '', ( -298.000000000000, 31.0000000000000, 136.000000000000 ) );
#330 = VECTOR( '', #379, 1000.00000000000 );
#331 = COLOUR_RGB( '', 0.752941191196442, 0.752941191196442, 0.752941191196442 );
#332 = CARTESIAN_POINT( '', ( -262.000000000000, -16.0000000000000, 136.000000000000 ) );
#333 = AXIS2_PLACEMENT_3D( '', #380, #381, #382 );
#334 = CARTESIAN_POINT( '', ( 262.000000000000, -16.0000000000000, 136.000000000000 ) );
#335 = AXIS2_PLACEMENT_3D( '', #383, #384, #385 );
#336 = CARTESIAN_POINT( '', ( 215.000000000000, -3.99999999999994, 136.000000000000 ) );
#337 = AXIS2_PLACEMENT_3D( '', #386, #387, #388 );
#338 = CARTESIAN_POINT( '', ( -215.000000000000, -4.00000000000000, 136.000000000000 ) );
#339 = AXIS2_PLACEMENT_3D( '', #389, #390, #391 );
#340 = CARTESIAN_POINT( '', ( 298.000000000000, 31.0000000000000, 136.000000000000 ) );
#341 = CARTESIAN_POINT( '', ( 298.000000000000, 31.0000000000000, 136.000000000000 ) );
#342 = VECTOR( '', #392, 1000.00000000000 );
#343 = CARTESIAN_POINT( '', ( 298.000000000000, -31.0000000000000, 136.000000000000 ) );
#344 = CARTESIAN_POINT( '', ( -298.000000000000, -31.0000000000000, 136.000000000000 ) );
#345 = VECTOR( '', #393, 1000.00000000000 );
#346 = CARTESIAN_POINT( '', ( 298.000000000000, -31.0000000000000, 136.000000000000 ) );
#347 = VECTOR( '', #394, 1000.00000000000 );
#348 = COLOUR_RGB( '', 0.752941191196442, 0.752941191196442, 0.752941191196442 );
#349 = CARTESIAN_POINT( '', ( 298.000000000000, 31.0000000000000, 0.000000000000000 ) );
#350 = CARTESIAN_POINT( '', ( 298.000000000000, 31.0000000000000, 0.000000000000000 ) );
#351 = VECTOR( '', #395, 1000.00000000000 );
#352 = CARTESIAN_POINT( '', ( 298.000000000000, 31.0000000000000, 136.000000000000 ) );
#353 = VECTOR( '', #396, 1000.00000000000 );
#354 = COLOUR_RGB( '', 0.752941191196442, 0.752941191196442, 0.752941191196442 );
#355 = CARTESIAN_POINT( '', ( 298.000000000000, -31.0000000000000, 0.000000000000000 ) );
#356 = CARTESIAN_POINT( '', ( -298.000000000000, -31.0000000000000, 0.000000000000000 ) );
#357 = VECTOR( '', #397, 1000.00000000000 );
#358 = CARTESIAN_POINT( '', ( 298.000000000000, -31.0000000000000, 136.000000000000 ) );
#359 = VECTOR( '', #398, 1000.00000000000 );
#360 = COLOUR_RGB( '', 0.752941191196442, 0.752941191196442, 0.752941191196442 );
#361 = CARTESIAN_POINT( '', ( -241.000000000000, 5.00000000000000, 0.000000000000000 ) );
#362 = AXIS2_PLACEMENT_3D( '', #399, #400, #401 );
#363 = CARTESIAN_POINT( '', ( 283.000000000000, 5.00000000000000, 0.000000000000000 ) );
#364 = AXIS2_PLACEMENT_3D( '', #402, #403, #404 );
#365 = CARTESIAN_POINT( '', ( 224.000000000000, 5.00000000000006, 0.000000000000000 ) );
#366 = AXIS2_PLACEMENT_3D( '', #405, #406, #407 );
#367 = CARTESIAN_POINT( '', ( -206.000000000000, 5.00000000000000, 0.000000000000000 ) );
#368 = AXIS2_PLACEMENT_3D( '', #408, #409, #410 );
#369 = CARTESIAN_POINT( '', ( 298.000000000000, -31.0000000000000, 0.000000000000000 ) );
#370 = VECTOR( '', #411, 1000.00000000000 );
#371 = COLOUR_RGB( '', 0.752941191196442, 0.752941191196442, 0.752941191196442 );
#372 = COLOUR_RGB( '', 0.752941191196442, 0.752941191196442, 0.752941191196442 );
#373 = COLOUR_RGB( '', 0.752941191196442, 0.752941191196442, 0.752941191196442 );
#374 = COLOUR_RGB( '', 0.752941191196442, 0.752941191196442, 0.752941191196442 );
#375 = COLOUR_RGB( '', 0.752941191196442, 0.752941191196442, 0.752941191196442 );
#376 = DIRECTION( '', ( 0.000000000000000, -1.00000000000000, 0.000000000000000 ) );
#377 = DIRECTION( '', ( 0.000000000000000, 0.000000000000000, -1.00000000000000 ) );
#378 = DIRECTION( '', ( 0.000000000000000, -1.00000000000000, 0.000000000000000 ) );
#379 = DIRECTION( '', ( 0.000000000000000, 0.000000000000000, -1.00000000000000 ) );
#380 = CARTESIAN_POINT( '', ( -262.000000000000, 5.00000000000000, 136.000000000000 ) );
#381 = DIRECTION( '', ( 0.000000000000000, 0.000000000000000, -1.00000000000000 ) );
#382 = DIRECTION( '', ( 0.000000000000000, -1.00000000000000, 0.000000000000000 ) );
#383 = CARTESIAN_POINT( '', ( 262.000000000000, 5.00000000000000, 136.000000000000 ) );
#384 = DIRECTION( '', ( 0.000000000000000, 0.000000000000000, -1.00000000000000 ) );
#385 = DIRECTION( '', ( 0.000000000000000, -1.00000000000000, 0.000000000000000 ) );
#386 = CARTESIAN_POINT( '', ( 215.000000000000, 5.00000000000006, 136.000000000000 ) );
#387 = DIRECTION( '', ( 0.000000000000000, 0.000000000000000, -1.00000000000000 ) );
#388 = DIRECTION( '', ( 0.000000000000000, -1.00000000000000, 0.000000000000000 ) );
#389 = CARTESIAN_POINT( '', ( -215.000000000000, 5.00000000000000, 136.000000000000 ) );
#390 = DIRECTION( '', ( 0.000000000000000, 0.000000000000000, -1.00000000000000 ) );
#391 = DIRECTION( '', ( 0.000000000000000, -1.00000000000000, 0.000000000000000 ) );
#392 = DIRECTION( '', ( -1.00000000000000, 2.91060985902149E-017, 0.000000000000000 ) );
#393 = DIRECTION( '', ( 1.00000000000000, -5.82121971804298E-017, 0.000000000000000 ) );
#394 = DIRECTION( '', ( 0.000000000000000, 1.00000000000000, 0.000000000000000 ) );
#395 = DIRECTION( '', ( -1.00000000000000, 2.91060985902149E-017, 0.000000000000000 ) );
#396 = DIRECTION( '', ( 0.000000000000000, 0.000000000000000, -1.00000000000000 ) );
#397 = DIRECTION( '', ( 1.00000000000000, -5.82121971804298E-017, 0.000000000000000 ) );
#398 = DIRECTION( '', ( 0.000000000000000, 0.000000000000000, -1.00000000000000 ) );
#399 = CARTESIAN_POINT( '', ( -262.000000000000, 5.00000000000000, 0.000000000000000 ) );
#400 = DIRECTION( '', ( 0.000000000000000, 0.000000000000000, 1.00000000000000 ) );
#401 = DIRECTION( '', ( 1.00000000000000, 0.000000000000000, 0.000000000000000 ) );
#402 = CARTESIAN_POINT( '', ( 262.000000000000, 5.00000000000000, 0.000000000000000 ) );
#403 = DIRECTION( '', ( 0.000000000000000, 0.000000000000000, 1.00000000000000 ) );
#404 = DIRECTION( '', ( 1.00000000000000, 0.000000000000000, 0.000000000000000 ) );
#405 = CARTESIAN_POINT( '', ( 215.000000000000, 5.00000000000006, 0.000000000000000 ) );
#406 = DIRECTION( '', ( 0.000000000000000, 0.000000000000000, 1.00000000000000 ) );
#407 = DIRECTION( '', ( 1.00000000000000, 0.000000000000000, 0.000000000000000 ) );
#408 = CARTESIAN_POINT( '', ( -215.000000000000, 5.00000000000000, 0.000000000000000 ) );
#409 = DIRECTION( '', ( 0.000000000000000, 0.000000000000000, 1.00000000000000 ) );
#410 = DIRECTION( '', ( 1.00000000000000, 0.000000000000000, 0.000000000000000 ) );
#411 = DIRECTION( '', ( 0.000000000000000, 1.00000000000000, 0.000000000000000 ) );
ENDSEC;
END-ISO-10303-21;
