ISO-10303-21;
HEADER;
FILE_DESCRIPTION( ( 'Unknown' ), '1' );
FILE_NAME( 'M:/Piezas_3D/Placas_Par/G2/OS_G2_446x696x136_.stp', 'Unknown', ( 'Unknown' ), ( 'Unknown' ), 'PSStep 16.0.42', 'Unknown', '  ' );
FILE_SCHEMA( ( 'AUTOMOTIVE_DESIGN { 1 0 10303 214 1 1 1 1 }' ) );
ENDSEC;
DATA;
#1 = MECHANICAL_DESIGN_GEOMETRIC_PRESENTATION_REPRESENTATION( ' ', ( #10, #11, #12, #13, #14, #15, #16, #17, #18, #19 ), #6 );
#2 = PRODUCT_DEFINITION_CONTEXT( '', #20, 'design' );
#3 = APPLICATION_PROTOCOL_DEFINITION( 'international standard', 'automotive_design', 2001, #20 );
#4 = PRODUCT_CATEGORY_RELATIONSHIP( 'NONE', 'NONE', #21, #22 );
#5 = SHAPE_DEFINITION_REPRESENTATION( #23, #24 );
#6 =  ( GEOMETRIC_REPRESENTATION_CONTEXT( 3 )GLOBAL_UNCERTAINTY_ASSIGNED_CONTEXT( ( #27 ) )GLOBAL_UNIT_ASSIGNED_CONTEXT( ( #29, #30, #31 ) )REPRESENTATION_CONTEXT( 'NONE', 'WORKSPACE' ) );
#10 = STYLED_ITEM( '', ( #33 ), #34 );
#11 = STYLED_ITEM( '', ( #35 ), #36 );
#12 = STYLED_ITEM( '', ( #37 ), #38 );
#13 = STYLED_ITEM( '', ( #39 ), #40 );
#14 = STYLED_ITEM( '', ( #41 ), #42 );
#15 = STYLED_ITEM( '', ( #43 ), #44 );
#16 = STYLED_ITEM( '', ( #45 ), #46 );
#17 = STYLED_ITEM( '', ( #47 ), #48 );
#18 = STYLED_ITEM( '', ( #49 ), #50 );
#19 = STYLED_ITEM( '', ( #51 ), #52 );
#20 = APPLICATION_CONTEXT( 'core data for automotive mechanical design processes' );
#21 = PRODUCT_CATEGORY( 'part', 'NONE' );
#22 = PRODUCT_RELATED_PRODUCT_CATEGORY( 'detail', ' ', ( #53 ) );
#23 = PRODUCT_DEFINITION_SHAPE( 'NONE', 'NONE', #54 );
#24 = ADVANCED_BREP_SHAPE_REPRESENTATION( '1', ( #55, #56 ), #6 );
#27 = UNCERTAINTY_MEASURE_WITH_UNIT( LENGTH_MEASURE( 0.00100000000000000 ), #29, '', '' );
#29 =  ( CONVERSION_BASED_UNIT( 'MILLIMETRE', #59 )LENGTH_UNIT(  )NAMED_UNIT( #62 ) );
#30 =  ( NAMED_UNIT( #64 )PLANE_ANGLE_UNIT(  )SI_UNIT( $, .RADIAN. ) );
#31 =  ( NAMED_UNIT( #64 )SI_UNIT( $, .STERADIAN. )SOLID_ANGLE_UNIT(  ) );
#33 = PRESENTATION_STYLE_ASSIGNMENT( ( #70 ) );
#34 = ADVANCED_FACE( '', ( #71, #72 ), #73, .F. );
#35 = PRESENTATION_STYLE_ASSIGNMENT( ( #74 ) );
#36 = ADVANCED_FACE( '', ( #75, #76 ), #77, .F. );
#37 = PRESENTATION_STYLE_ASSIGNMENT( ( #78 ) );
#38 = ADVANCED_FACE( '', ( #79 ), #80, .F. );
#39 = PRESENTATION_STYLE_ASSIGNMENT( ( #81 ) );
#40 = ADVANCED_FACE( '', ( #82 ), #83, .F. );
#41 = PRESENTATION_STYLE_ASSIGNMENT( ( #84 ) );
#42 = ADVANCED_FACE( '', ( #85, #86 ), #87, .F. );
#43 = PRESENTATION_STYLE_ASSIGNMENT( ( #88 ) );
#44 = ADVANCED_FACE( '', ( #89, #90 ), #91, .F. );
#45 = PRESENTATION_STYLE_ASSIGNMENT( ( #92 ) );
#46 = ADVANCED_FACE( '', ( #93 ), #94, .F. );
#47 = PRESENTATION_STYLE_ASSIGNMENT( ( #95 ) );
#48 = ADVANCED_FACE( '', ( #96 ), #97, .F. );
#49 = PRESENTATION_STYLE_ASSIGNMENT( ( #98 ) );
#50 = ADVANCED_FACE( '', ( #99, #100, #101, #102, #103 ), #104, .T. );
#51 = PRESENTATION_STYLE_ASSIGNMENT( ( #105 ) );
#52 = ADVANCED_FACE( '', ( #106, #107, #108, #109, #110 ), #111, .F. );
#53 = PRODUCT( '1', '1', 'PART-1-DESC', ( #112 ) );
#54 = PRODUCT_DEFINITION( 'NONE', 'NONE', #113, #2 );
#55 = MANIFOLD_SOLID_BREP( '1', #114 );
#56 = AXIS2_PLACEMENT_3D( '', #115, #116, #117 );
#59 = LENGTH_MEASURE_WITH_UNIT( LENGTH_MEASURE( 1.00000000000000 ), #118 );
#62 = DIMENSIONAL_EXPONENTS( 1.00000000000000, 0.000000000000000, 0.000000000000000, 0.000000000000000, 0.000000000000000, 0.000000000000000, 0.000000000000000 );
#64 = DIMENSIONAL_EXPONENTS( 0.000000000000000, 0.000000000000000, 0.000000000000000, 0.000000000000000, 0.000000000000000, 0.000000000000000, 0.000000000000000 );
#70 = SURFACE_STYLE_USAGE( .BOTH., #119 );
#71 = FACE_OUTER_BOUND( '', #120, .T. );
#72 = FACE_OUTER_BOUND( '', #121, .T. );
#73 = CYLINDRICAL_SURFACE( '', #122, 9.00000000000000 );
#74 = SURFACE_STYLE_USAGE( .BOTH., #123 );
#75 = FACE_OUTER_BOUND( '', #124, .T. );
#76 = FACE_OUTER_BOUND( '', #125, .T. );
#77 = CYLINDRICAL_SURFACE( '', #126, 21.0000000000000 );
#78 = SURFACE_STYLE_USAGE( .BOTH., #127 );
#79 = FACE_OUTER_BOUND( '', #128, .T. );
#80 = PLANE( '', #129 );
#81 = SURFACE_STYLE_USAGE( .BOTH., #130 );
#82 = FACE_OUTER_BOUND( '', #131, .T. );
#83 = PLANE( '', #132 );
#84 = SURFACE_STYLE_USAGE( .BOTH., #133 );
#85 = FACE_OUTER_BOUND( '', #134, .T. );
#86 = FACE_OUTER_BOUND( '', #135, .T. );
#87 = CYLINDRICAL_SURFACE( '', #136, 9.00000000000000 );
#88 = SURFACE_STYLE_USAGE( .BOTH., #137 );
#89 = FACE_OUTER_BOUND( '', #138, .T. );
#90 = FACE_OUTER_BOUND( '', #139, .T. );
#91 = CYLINDRICAL_SURFACE( '', #140, 21.0000000000000 );
#92 = SURFACE_STYLE_USAGE( .BOTH., #141 );
#93 = FACE_OUTER_BOUND( '', #142, .T. );
#94 = PLANE( '', #143 );
#95 = SURFACE_STYLE_USAGE( .BOTH., #144 );
#96 = FACE_OUTER_BOUND( '', #145, .T. );
#97 = PLANE( '', #146 );
#98 = SURFACE_STYLE_USAGE( .BOTH., #147 );
#99 = FACE_BOUND( '', #148, .T. );
#100 = FACE_BOUND( '', #149, .T. );
#101 = FACE_BOUND( '', #150, .T. );
#102 = FACE_BOUND( '', #151, .T. );
#103 = FACE_OUTER_BOUND( '', #152, .T. );
#104 = PLANE( '', #153 );
#105 = SURFACE_STYLE_USAGE( .BOTH., #154 );
#106 = FACE_BOUND( '', #155, .T. );
#107 = FACE_BOUND( '', #156, .T. );
#108 = FACE_BOUND( '', #157, .T. );
#109 = FACE_BOUND( '', #158, .T. );
#110 = FACE_OUTER_BOUND( '', #159, .T. );
#111 = PLANE( '', #160 );
#112 = PRODUCT_CONTEXT( '', #20, 'mechanical' );
#113 = PRODUCT_DEFINITION_FORMATION_WITH_SPECIFIED_SOURCE( ' ', 'NONE', #53, .NOT_KNOWN. );
#114 = CLOSED_SHELL( '', ( #34, #52, #48, #50, #46, #40, #38, #42, #36, #44 ) );
#115 = CARTESIAN_POINT( '', ( 0.000000000000000, 0.000000000000000, 0.000000000000000 ) );
#116 = DIRECTION( '', ( 0.000000000000000, 0.000000000000000, 1.00000000000000 ) );
#117 = DIRECTION( '', ( 1.00000000000000, 0.000000000000000, 0.000000000000000 ) );
#118 =  ( LENGTH_UNIT(  )NAMED_UNIT( #62 )SI_UNIT( .MILLI., .METRE. ) );
#119 = SURFACE_SIDE_STYLE( '', ( #162 ) );
#120 = EDGE_LOOP( '', ( #163 ) );
#121 = EDGE_LOOP( '', ( #164 ) );
#122 = AXIS2_PLACEMENT_3D( '', #165, #166, #167 );
#123 = SURFACE_SIDE_STYLE( '', ( #168 ) );
#124 = EDGE_LOOP( '', ( #169 ) );
#125 = EDGE_LOOP( '', ( #170 ) );
#126 = AXIS2_PLACEMENT_3D( '', #171, #172, #173 );
#127 = SURFACE_SIDE_STYLE( '', ( #174 ) );
#128 = EDGE_LOOP( '', ( #175, #176, #177, #178 ) );
#129 = AXIS2_PLACEMENT_3D( '', #179, #180, #181 );
#130 = SURFACE_SIDE_STYLE( '', ( #182 ) );
#131 = EDGE_LOOP( '', ( #183, #184, #185, #186 ) );
#132 = AXIS2_PLACEMENT_3D( '', #187, #188, #189 );
#133 = SURFACE_SIDE_STYLE( '', ( #190 ) );
#134 = EDGE_LOOP( '', ( #191 ) );
#135 = EDGE_LOOP( '', ( #192 ) );
#136 = AXIS2_PLACEMENT_3D( '', #193, #194, #195 );
#137 = SURFACE_SIDE_STYLE( '', ( #196 ) );
#138 = EDGE_LOOP( '', ( #197 ) );
#139 = EDGE_LOOP( '', ( #198 ) );
#140 = AXIS2_PLACEMENT_3D( '', #199, #200, #201 );
#141 = SURFACE_SIDE_STYLE( '', ( #202 ) );
#142 = EDGE_LOOP( '', ( #203, #204, #205, #206 ) );
#143 = AXIS2_PLACEMENT_3D( '', #207, #208, #209 );
#144 = SURFACE_SIDE_STYLE( '', ( #210 ) );
#145 = EDGE_LOOP( '', ( #211, #212, #213, #214 ) );
#146 = AXIS2_PLACEMENT_3D( '', #215, #216, #217 );
#147 = SURFACE_SIDE_STYLE( '', ( #218 ) );
#148 = EDGE_LOOP( '', ( #219 ) );
#149 = EDGE_LOOP( '', ( #220 ) );
#150 = EDGE_LOOP( '', ( #221 ) );
#151 = EDGE_LOOP( '', ( #222 ) );
#152 = EDGE_LOOP( '', ( #223, #224, #225, #226 ) );
#153 = AXIS2_PLACEMENT_3D( '', #227, #228, #229 );
#154 = SURFACE_SIDE_STYLE( '', ( #230 ) );
#155 = EDGE_LOOP( '', ( #231 ) );
#156 = EDGE_LOOP( '', ( #232 ) );
#157 = EDGE_LOOP( '', ( #233 ) );
#158 = EDGE_LOOP( '', ( #234 ) );
#159 = EDGE_LOOP( '', ( #235, #236, #237, #238 ) );
#160 = AXIS2_PLACEMENT_3D( '', #239, #240, #241 );
#162 = SURFACE_STYLE_FILL_AREA( #242 );
#163 = ORIENTED_EDGE( '', *, *, #243, .F. );
#164 = ORIENTED_EDGE( '', *, *, #244, .F. );
#165 = CARTESIAN_POINT( '', ( -265.000000000000, 5.00000000000000, 136.000000000000 ) );
#166 = DIRECTION( '', ( -0.000000000000000, -0.000000000000000, 1.00000000000000 ) );
#167 = DIRECTION( '', ( 0.000000000000000, -1.00000000000000, 0.000000000000000 ) );
#168 = SURFACE_STYLE_FILL_AREA( #245 );
#169 = ORIENTED_EDGE( '', *, *, #246, .F. );
#170 = ORIENTED_EDGE( '', *, *, #247, .F. );
#171 = CARTESIAN_POINT( '', ( 312.000000000000, 5.00000000000000, 136.000000000000 ) );
#172 = DIRECTION( '', ( -0.000000000000000, -0.000000000000000, 1.00000000000000 ) );
#173 = DIRECTION( '', ( 0.000000000000000, -1.00000000000000, 0.000000000000000 ) );
#174 = SURFACE_STYLE_FILL_AREA( #248 );
#175 = ORIENTED_EDGE( '', *, *, #249, .T. );
#176 = ORIENTED_EDGE( '', *, *, #250, .F. );
#177 = ORIENTED_EDGE( '', *, *, #251, .F. );
#178 = ORIENTED_EDGE( '', *, *, #252, .T. );
#179 = CARTESIAN_POINT( '', ( -348.000000000000, 31.0000000000000, 136.000000000000 ) );
#180 = DIRECTION( '', ( 1.00000000000000, 0.000000000000000, 0.000000000000000 ) );
#181 = DIRECTION( '', ( 0.000000000000000, 0.000000000000000, -1.00000000000000 ) );
#182 = SURFACE_STYLE_FILL_AREA( #253 );
#183 = ORIENTED_EDGE( '', *, *, #254, .T. );
#184 = ORIENTED_EDGE( '', *, *, #252, .F. );
#185 = ORIENTED_EDGE( '', *, *, #255, .F. );
#186 = ORIENTED_EDGE( '', *, *, #256, .T. );
#187 = CARTESIAN_POINT( '', ( 348.000000000000, 31.0000000000000, 136.000000000000 ) );
#188 = DIRECTION( '', ( -2.99090254478760E-017, -1.00000000000000, 0.000000000000000 ) );
#189 = DIRECTION( '', ( 1.00000000000000, -2.99090254478760E-017, 0.000000000000000 ) );
#190 = SURFACE_STYLE_FILL_AREA( #257 );
#191 = ORIENTED_EDGE( '', *, *, #258, .F. );
#192 = ORIENTED_EDGE( '', *, *, #259, .F. );
#193 = CARTESIAN_POINT( '', ( 265.000000000000, 5.00000000000007, 136.000000000000 ) );
#194 = DIRECTION( '', ( -0.000000000000000, -0.000000000000000, 1.00000000000000 ) );
#195 = DIRECTION( '', ( 0.000000000000000, -1.00000000000000, 0.000000000000000 ) );
#196 = SURFACE_STYLE_FILL_AREA( #260 );
#197 = ORIENTED_EDGE( '', *, *, #261, .F. );
#198 = ORIENTED_EDGE( '', *, *, #262, .F. );
#199 = CARTESIAN_POINT( '', ( -312.000000000000, 5.00000000000000, 136.000000000000 ) );
#200 = DIRECTION( '', ( -0.000000000000000, -0.000000000000000, 1.00000000000000 ) );
#201 = DIRECTION( '', ( 0.000000000000000, -1.00000000000000, 0.000000000000000 ) );
#202 = SURFACE_STYLE_FILL_AREA( #263 );
#203 = ORIENTED_EDGE( '', *, *, #264, .T. );
#204 = ORIENTED_EDGE( '', *, *, #265, .F. );
#205 = ORIENTED_EDGE( '', *, *, #266, .F. );
#206 = ORIENTED_EDGE( '', *, *, #250, .T. );
#207 = CARTESIAN_POINT( '', ( -348.000000000000, -31.0000000000000, 136.000000000000 ) );
#208 = DIRECTION( '', ( 5.48332133211060E-017, 1.00000000000000, 0.000000000000000 ) );
#209 = DIRECTION( '', ( -1.00000000000000, 5.48332133211060E-017, 0.000000000000000 ) );
#210 = SURFACE_STYLE_FILL_AREA( #267 );
#211 = ORIENTED_EDGE( '', *, *, #268, .T. );
#212 = ORIENTED_EDGE( '', *, *, #256, .F. );
#213 = ORIENTED_EDGE( '', *, *, #269, .F. );
#214 = ORIENTED_EDGE( '', *, *, #265, .T. );
#215 = CARTESIAN_POINT( '', ( 348.000000000000, -31.0000000000000, 136.000000000000 ) );
#216 = DIRECTION( '', ( -1.00000000000000, 0.000000000000000, 0.000000000000000 ) );
#217 = DIRECTION( '', ( 0.000000000000000, 0.000000000000000, 1.00000000000000 ) );
#218 = SURFACE_STYLE_FILL_AREA( #270 );
#219 = ORIENTED_EDGE( '', *, *, #261, .T. );
#220 = ORIENTED_EDGE( '', *, *, #246, .T. );
#221 = ORIENTED_EDGE( '', *, *, #258, .T. );
#222 = ORIENTED_EDGE( '', *, *, #243, .T. );
#223 = ORIENTED_EDGE( '', *, *, #255, .T. );
#224 = ORIENTED_EDGE( '', *, *, #251, .T. );
#225 = ORIENTED_EDGE( '', *, *, #266, .T. );
#226 = ORIENTED_EDGE( '', *, *, #269, .T. );
#227 = CARTESIAN_POINT( '', ( -348.000000000000, 31.0000000000000, 136.000000000000 ) );
#228 = DIRECTION( '', ( 0.000000000000000, 0.000000000000000, 1.00000000000000 ) );
#229 = DIRECTION( '', ( 1.00000000000000, 0.000000000000000, 0.000000000000000 ) );
#230 = SURFACE_STYLE_FILL_AREA( #271 );
#231 = ORIENTED_EDGE( '', *, *, #262, .T. );
#232 = ORIENTED_EDGE( '', *, *, #247, .T. );
#233 = ORIENTED_EDGE( '', *, *, #259, .T. );
#234 = ORIENTED_EDGE( '', *, *, #244, .T. );
#235 = ORIENTED_EDGE( '', *, *, #254, .F. );
#236 = ORIENTED_EDGE( '', *, *, #268, .F. );
#237 = ORIENTED_EDGE( '', *, *, #264, .F. );
#238 = ORIENTED_EDGE( '', *, *, #249, .F. );
#239 = CARTESIAN_POINT( '', ( -348.000000000000, 31.0000000000000, 0.000000000000000 ) );
#240 = DIRECTION( '', ( 0.000000000000000, 0.000000000000000, 1.00000000000000 ) );
#241 = DIRECTION( '', ( 1.00000000000000, 0.000000000000000, 0.000000000000000 ) );
#242 = FILL_AREA_STYLE( '', ( #272 ) );
#243 = EDGE_CURVE( '', #273, #273, #274, .T. );
#244 = EDGE_CURVE( '', #275, #275, #276, .T. );
#245 = FILL_AREA_STYLE( '', ( #277 ) );
#246 = EDGE_CURVE( '', #278, #278, #279, .T. );
#247 = EDGE_CURVE( '', #280, #280, #281, .T. );
#248 = FILL_AREA_STYLE( '', ( #282 ) );
#249 = EDGE_CURVE( '', #283, #284, #285, .T. );
#250 = EDGE_CURVE( '', #286, #284, #287, .T. );
#251 = EDGE_CURVE( '', #288, #286, #289, .T. );
#252 = EDGE_CURVE( '', #288, #283, #290, .T. );
#253 = FILL_AREA_STYLE( '', ( #291 ) );
#254 = EDGE_CURVE( '', #292, #283, #293, .T. );
#255 = EDGE_CURVE( '', #294, #288, #295, .T. );
#256 = EDGE_CURVE( '', #294, #292, #296, .T. );
#257 = FILL_AREA_STYLE( '', ( #297 ) );
#258 = EDGE_CURVE( '', #298, #298, #299, .T. );
#259 = EDGE_CURVE( '', #300, #300, #301, .T. );
#260 = FILL_AREA_STYLE( '', ( #302 ) );
#261 = EDGE_CURVE( '', #303, #303, #304, .T. );
#262 = EDGE_CURVE( '', #305, #305, #306, .T. );
#263 = FILL_AREA_STYLE( '', ( #307 ) );
#264 = EDGE_CURVE( '', #284, #308, #309, .T. );
#265 = EDGE_CURVE( '', #310, #308, #311, .T. );
#266 = EDGE_CURVE( '', #286, #310, #312, .T. );
#267 = FILL_AREA_STYLE( '', ( #313 ) );
#268 = EDGE_CURVE( '', #308, #292, #314, .T. );
#269 = EDGE_CURVE( '', #310, #294, #315, .T. );
#270 = FILL_AREA_STYLE( '', ( #316 ) );
#271 = FILL_AREA_STYLE( '', ( #317 ) );
#272 = FILL_AREA_STYLE_COLOUR( '', #318 );
#273 = VERTEX_POINT( '', #319 );
#274 = CIRCLE( '', #320, 9.00000000000000 );
#275 = VERTEX_POINT( '', #321 );
#276 = CIRCLE( '', #322, 9.00000000000000 );
#277 = FILL_AREA_STYLE_COLOUR( '', #323 );
#278 = VERTEX_POINT( '', #324 );
#279 = CIRCLE( '', #325, 21.0000000000000 );
#280 = VERTEX_POINT( '', #326 );
#281 = CIRCLE( '', #327, 21.0000000000000 );
#282 = FILL_AREA_STYLE_COLOUR( '', #328 );
#283 = VERTEX_POINT( '', #329 );
#284 = VERTEX_POINT( '', #330 );
#285 = LINE( '', #331, #332 );
#286 = VERTEX_POINT( '', #333 );
#287 = LINE( '', #334, #335 );
#288 = VERTEX_POINT( '', #336 );
#289 = LINE( '', #337, #338 );
#290 = LINE( '', #339, #340 );
#291 = FILL_AREA_STYLE_COLOUR( '', #341 );
#292 = VERTEX_POINT( '', #342 );
#293 = LINE( '', #343, #344 );
#294 = VERTEX_POINT( '', #345 );
#295 = LINE( '', #346, #347 );
#296 = LINE( '', #348, #349 );
#297 = FILL_AREA_STYLE_COLOUR( '', #350 );
#298 = VERTEX_POINT( '', #351 );
#299 = CIRCLE( '', #352, 9.00000000000000 );
#300 = VERTEX_POINT( '', #353 );
#301 = CIRCLE( '', #354, 9.00000000000000 );
#302 = FILL_AREA_STYLE_COLOUR( '', #355 );
#303 = VERTEX_POINT( '', #356 );
#304 = CIRCLE( '', #357, 21.0000000000000 );
#305 = VERTEX_POINT( '', #358 );
#306 = CIRCLE( '', #359, 21.0000000000000 );
#307 = FILL_AREA_STYLE_COLOUR( '', #360 );
#308 = VERTEX_POINT( '', #361 );
#309 = LINE( '', #362, #363 );
#310 = VERTEX_POINT( '', #364 );
#311 = LINE( '', #365, #366 );
#312 = LINE( '', #367, #368 );
#313 = FILL_AREA_STYLE_COLOUR( '', #369 );
#314 = LINE( '', #370, #371 );
#315 = LINE( '', #372, #373 );
#316 = FILL_AREA_STYLE_COLOUR( '', #374 );
#317 = FILL_AREA_STYLE_COLOUR( '', #375 );
#318 = COLOUR_RGB( '', 0.752941191196442, 0.752941191196442, 0.752941191196442 );
#319 = CARTESIAN_POINT( '', ( -265.000000000000, -4.00000000000000, 136.000000000000 ) );
#320 = AXIS2_PLACEMENT_3D( '', #376, #377, #378 );
#321 = CARTESIAN_POINT( '', ( -256.000000000000, 5.00000000000000, 0.000000000000000 ) );
#322 = AXIS2_PLACEMENT_3D( '', #379, #380, #381 );
#323 = COLOUR_RGB( '', 0.752941191196442, 0.752941191196442, 0.752941191196442 );
#324 = CARTESIAN_POINT( '', ( 312.000000000000, -16.0000000000000, 136.000000000000 ) );
#325 = AXIS2_PLACEMENT_3D( '', #382, #383, #384 );
#326 = CARTESIAN_POINT( '', ( 333.000000000000, 5.00000000000000, 0.000000000000000 ) );
#327 = AXIS2_PLACEMENT_3D( '', #385, #386, #387 );
#328 = COLOUR_RGB( '', 0.752941191196442, 0.752941191196442, 0.752941191196442 );
#329 = CARTESIAN_POINT( '', ( -348.000000000000, 31.0000000000000, 0.000000000000000 ) );
#330 = CARTESIAN_POINT( '', ( -348.000000000000, -31.0000000000000, 0.000000000000000 ) );
#331 = CARTESIAN_POINT( '', ( -348.000000000000, 31.0000000000000, 0.000000000000000 ) );
#332 = VECTOR( '', #388, 1000.00000000000 );
#333 = CARTESIAN_POINT( '', ( -348.000000000000, -31.0000000000000, 136.000000000000 ) );
#334 = CARTESIAN_POINT( '', ( -348.000000000000, -31.0000000000000, 136.000000000000 ) );
#335 = VECTOR( '', #389, 1000.00000000000 );
#336 = CARTESIAN_POINT( '', ( -348.000000000000, 31.0000000000000, 136.000000000000 ) );
#337 = CARTESIAN_POINT( '', ( -348.000000000000, 31.0000000000000, 136.000000000000 ) );
#338 = VECTOR( '', #390, 1000.00000000000 );
#339 = CARTESIAN_POINT( '', ( -348.000000000000, 31.0000000000000, 136.000000000000 ) );
#340 = VECTOR( '', #391, 1000.00000000000 );
#341 = COLOUR_RGB( '', 0.752941191196442, 0.752941191196442, 0.752941191196442 );
#342 = CARTESIAN_POINT( '', ( 348.000000000000, 31.0000000000000, 0.000000000000000 ) );
#343 = CARTESIAN_POINT( '', ( 348.000000000000, 31.0000000000000, 0.000000000000000 ) );
#344 = VECTOR( '', #392, 1000.00000000000 );
#345 = CARTESIAN_POINT( '', ( 348.000000000000, 31.0000000000000, 136.000000000000 ) );
#346 = CARTESIAN_POINT( '', ( 348.000000000000, 31.0000000000000, 136.000000000000 ) );
#347 = VECTOR( '', #393, 1000.00000000000 );
#348 = CARTESIAN_POINT( '', ( 348.000000000000, 31.0000000000000, 136.000000000000 ) );
#349 = VECTOR( '', #394, 1000.00000000000 );
#350 = COLOUR_RGB( '', 0.752941191196442, 0.752941191196442, 0.752941191196442 );
#351 = CARTESIAN_POINT( '', ( 265.000000000000, -3.99999999999993, 136.000000000000 ) );
#352 = AXIS2_PLACEMENT_3D( '', #395, #396, #397 );
#353 = CARTESIAN_POINT( '', ( 274.000000000000, 5.00000000000007, 0.000000000000000 ) );
#354 = AXIS2_PLACEMENT_3D( '', #398, #399, #400 );
#355 = COLOUR_RGB( '', 0.752941191196442, 0.752941191196442, 0.752941191196442 );
#356 = CARTESIAN_POINT( '', ( -312.000000000000, -16.0000000000000, 136.000000000000 ) );
#357 = AXIS2_PLACEMENT_3D( '', #401, #402, #403 );
#358 = CARTESIAN_POINT( '', ( -291.000000000000, 5.00000000000000, 0.000000000000000 ) );
#359 = AXIS2_PLACEMENT_3D( '', #404, #405, #406 );
#360 = COLOUR_RGB( '', 0.752941191196442, 0.752941191196442, 0.752941191196442 );
#361 = CARTESIAN_POINT( '', ( 348.000000000000, -31.0000000000000, 0.000000000000000 ) );
#362 = CARTESIAN_POINT( '', ( -348.000000000000, -31.0000000000000, 0.000000000000000 ) );
#363 = VECTOR( '', #407, 1000.00000000000 );
#364 = CARTESIAN_POINT( '', ( 348.000000000000, -31.0000000000000, 136.000000000000 ) );
#365 = CARTESIAN_POINT( '', ( 348.000000000000, -31.0000000000000, 136.000000000000 ) );
#366 = VECTOR( '', #408, 1000.00000000000 );
#367 = CARTESIAN_POINT( '', ( -348.000000000000, -31.0000000000000, 136.000000000000 ) );
#368 = VECTOR( '', #409, 1000.00000000000 );
#369 = COLOUR_RGB( '', 0.752941191196442, 0.752941191196442, 0.752941191196442 );
#370 = CARTESIAN_POINT( '', ( 348.000000000000, -31.0000000000000, 0.000000000000000 ) );
#371 = VECTOR( '', #410, 1000.00000000000 );
#372 = CARTESIAN_POINT( '', ( 348.000000000000, -31.0000000000000, 136.000000000000 ) );
#373 = VECTOR( '', #411, 1000.00000000000 );
#374 = COLOUR_RGB( '', 0.752941191196442, 0.752941191196442, 0.752941191196442 );
#375 = COLOUR_RGB( '', 0.752941191196442, 0.752941191196442, 0.752941191196442 );
#376 = CARTESIAN_POINT( '', ( -265.000000000000, 5.00000000000000, 136.000000000000 ) );
#377 = DIRECTION( '', ( 0.000000000000000, 0.000000000000000, -1.00000000000000 ) );
#378 = DIRECTION( '', ( 0.000000000000000, -1.00000000000000, 0.000000000000000 ) );
#379 = CARTESIAN_POINT( '', ( -265.000000000000, 5.00000000000000, 0.000000000000000 ) );
#380 = DIRECTION( '', ( 0.000000000000000, 0.000000000000000, 1.00000000000000 ) );
#381 = DIRECTION( '', ( 1.00000000000000, 0.000000000000000, 0.000000000000000 ) );
#382 = CARTESIAN_POINT( '', ( 312.000000000000, 5.00000000000000, 136.000000000000 ) );
#383 = DIRECTION( '', ( 0.000000000000000, 0.000000000000000, -1.00000000000000 ) );
#384 = DIRECTION( '', ( 0.000000000000000, -1.00000000000000, 0.000000000000000 ) );
#385 = CARTESIAN_POINT( '', ( 312.000000000000, 5.00000000000000, 0.000000000000000 ) );
#386 = DIRECTION( '', ( 0.000000000000000, 0.000000000000000, 1.00000000000000 ) );
#387 = DIRECTION( '', ( 1.00000000000000, 0.000000000000000, 0.000000000000000 ) );
#388 = DIRECTION( '', ( 0.000000000000000, -1.00000000000000, 0.000000000000000 ) );
#389 = DIRECTION( '', ( 0.000000000000000, 0.000000000000000, -1.00000000000000 ) );
#390 = DIRECTION( '', ( 0.000000000000000, -1.00000000000000, 0.000000000000000 ) );
#391 = DIRECTION( '', ( 0.000000000000000, 0.000000000000000, -1.00000000000000 ) );
#392 = DIRECTION( '', ( -1.00000000000000, 2.99090254478760E-017, 0.000000000000000 ) );
#393 = DIRECTION( '', ( -1.00000000000000, 2.99090254478760E-017, 0.000000000000000 ) );
#394 = DIRECTION( '', ( 0.000000000000000, 0.000000000000000, -1.00000000000000 ) );
#395 = CARTESIAN_POINT( '', ( 265.000000000000, 5.00000000000007, 136.000000000000 ) );
#396 = DIRECTION( '', ( 0.000000000000000, 0.000000000000000, -1.00000000000000 ) );
#397 = DIRECTION( '', ( 0.000000000000000, -1.00000000000000, 0.000000000000000 ) );
#398 = CARTESIAN_POINT( '', ( 265.000000000000, 5.00000000000007, 0.000000000000000 ) );
#399 = DIRECTION( '', ( 0.000000000000000, 0.000000000000000, 1.00000000000000 ) );
#400 = DIRECTION( '', ( 1.00000000000000, 0.000000000000000, 0.000000000000000 ) );
#401 = CARTESIAN_POINT( '', ( -312.000000000000, 5.00000000000000, 136.000000000000 ) );
#402 = DIRECTION( '', ( 0.000000000000000, 0.000000000000000, -1.00000000000000 ) );
#403 = DIRECTION( '', ( 0.000000000000000, -1.00000000000000, 0.000000000000000 ) );
#404 = CARTESIAN_POINT( '', ( -312.000000000000, 5.00000000000000, 0.000000000000000 ) );
#405 = DIRECTION( '', ( 0.000000000000000, 0.000000000000000, 1.00000000000000 ) );
#406 = DIRECTION( '', ( 1.00000000000000, 0.000000000000000, 0.000000000000000 ) );
#407 = DIRECTION( '', ( 1.00000000000000, -5.48332133211060E-017, 0.000000000000000 ) );
#408 = DIRECTION( '', ( 0.000000000000000, 0.000000000000000, -1.00000000000000 ) );
#409 = DIRECTION( '', ( 1.00000000000000, -5.48332133211060E-017, 0.000000000000000 ) );
#410 = DIRECTION( '', ( 0.000000000000000, 1.00000000000000, 0.000000000000000 ) );
#411 = DIRECTION( '', ( 0.000000000000000, 1.00000000000000, 0.000000000000000 ) );
ENDSEC;
END-ISO-10303-21;
