ISO-10303-21;
HEADER;
FILE_DESCRIPTION( ( 'Unknown' ), '1' );
FILE_NAME( 'M:/Piezas_3D/Placas_Par/G2/OS_G2_446x796x096_.stp', 'Unknown', ( 'Unknown' ), ( 'Unknown' ), 'PSStep 16.0.42', 'Unknown', '  ' );
FILE_SCHEMA( ( 'AUTOMOTIVE_DESIGN { 1 0 10303 214 1 1 1 1 }' ) );
ENDSEC;
DATA;
#1 = MECHANICAL_DESIGN_GEOMETRIC_PRESENTATION_REPRESENTATION( ' ', ( #10, #11, #12, #13, #14, #15, #16, #17, #18, #19 ), #6 );
#2 = PRODUCT_DEFINITION_CONTEXT( '', #20, 'design' );
#3 = APPLICATION_PROTOCOL_DEFINITION( 'international standard', 'automotive_design', 2001, #20 );
#4 = PRODUCT_CATEGORY_RELATIONSHIP( 'NONE', 'NONE', #21, #22 );
#5 = SHAPE_DEFINITION_REPRESENTATION( #23, #24 );
#6 =  ( GEOMETRIC_REPRESENTATION_CONTEXT( 3 )GLOBAL_UNCERTAINTY_ASSIGNED_CONTEXT( ( #27 ) )GLOBAL_UNIT_ASSIGNED_CONTEXT( ( #29, #30, #31 ) )REPRESENTATION_CONTEXT( 'NONE', 'WORKSPACE' ) );
#10 = STYLED_ITEM( '', ( #33 ), #34 );
#11 = STYLED_ITEM( '', ( #35 ), #36 );
#12 = STYLED_ITEM( '', ( #37 ), #38 );
#13 = STYLED_ITEM( '', ( #39 ), #40 );
#14 = STYLED_ITEM( '', ( #41 ), #42 );
#15 = STYLED_ITEM( '', ( #43 ), #44 );
#16 = STYLED_ITEM( '', ( #45 ), #46 );
#17 = STYLED_ITEM( '', ( #47 ), #48 );
#18 = STYLED_ITEM( '', ( #49 ), #50 );
#19 = STYLED_ITEM( '', ( #51 ), #52 );
#20 = APPLICATION_CONTEXT( 'core data for automotive mechanical design processes' );
#21 = PRODUCT_CATEGORY( 'part', 'NONE' );
#22 = PRODUCT_RELATED_PRODUCT_CATEGORY( 'detail', ' ', ( #53 ) );
#23 = PRODUCT_DEFINITION_SHAPE( 'NONE', 'NONE', #54 );
#24 = ADVANCED_BREP_SHAPE_REPRESENTATION( '1', ( #55, #56 ), #6 );
#27 = UNCERTAINTY_MEASURE_WITH_UNIT( LENGTH_MEASURE( 0.00100000000000000 ), #29, '', '' );
#29 =  ( CONVERSION_BASED_UNIT( 'MILLIMETRE', #59 )LENGTH_UNIT(  )NAMED_UNIT( #62 ) );
#30 =  ( NAMED_UNIT( #64 )PLANE_ANGLE_UNIT(  )SI_UNIT( $, .RADIAN. ) );
#31 =  ( NAMED_UNIT( #64 )SI_UNIT( $, .STERADIAN. )SOLID_ANGLE_UNIT(  ) );
#33 = PRESENTATION_STYLE_ASSIGNMENT( ( #70 ) );
#34 = ADVANCED_FACE( '', ( #71, #72 ), #73, .F. );
#35 = PRESENTATION_STYLE_ASSIGNMENT( ( #74 ) );
#36 = ADVANCED_FACE( '', ( #75, #76 ), #77, .F. );
#37 = PRESENTATION_STYLE_ASSIGNMENT( ( #78 ) );
#38 = ADVANCED_FACE( '', ( #79 ), #80, .F. );
#39 = PRESENTATION_STYLE_ASSIGNMENT( ( #81 ) );
#40 = ADVANCED_FACE( '', ( #82, #83, #84, #85, #86 ), #87, .F. );
#41 = PRESENTATION_STYLE_ASSIGNMENT( ( #88 ) );
#42 = ADVANCED_FACE( '', ( #89, #90, #91, #92, #93 ), #94, .T. );
#43 = PRESENTATION_STYLE_ASSIGNMENT( ( #95 ) );
#44 = ADVANCED_FACE( '', ( #96 ), #97, .F. );
#45 = PRESENTATION_STYLE_ASSIGNMENT( ( #98 ) );
#46 = ADVANCED_FACE( '', ( #99 ), #100, .F. );
#47 = PRESENTATION_STYLE_ASSIGNMENT( ( #101 ) );
#48 = ADVANCED_FACE( '', ( #102 ), #103, .F. );
#49 = PRESENTATION_STYLE_ASSIGNMENT( ( #104 ) );
#50 = ADVANCED_FACE( '', ( #105, #106 ), #107, .F. );
#51 = PRESENTATION_STYLE_ASSIGNMENT( ( #108 ) );
#52 = ADVANCED_FACE( '', ( #109, #110 ), #111, .F. );
#53 = PRODUCT( '1', '1', 'PART-1-DESC', ( #112 ) );
#54 = PRODUCT_DEFINITION( 'NONE', 'NONE', #113, #2 );
#55 = MANIFOLD_SOLID_BREP( '1', #114 );
#56 = AXIS2_PLACEMENT_3D( '', #115, #116, #117 );
#59 = LENGTH_MEASURE_WITH_UNIT( LENGTH_MEASURE( 1.00000000000000 ), #118 );
#62 = DIMENSIONAL_EXPONENTS( 1.00000000000000, 0.000000000000000, 0.000000000000000, 0.000000000000000, 0.000000000000000, 0.000000000000000, 0.000000000000000 );
#64 = DIMENSIONAL_EXPONENTS( 0.000000000000000, 0.000000000000000, 0.000000000000000, 0.000000000000000, 0.000000000000000, 0.000000000000000, 0.000000000000000 );
#70 = SURFACE_STYLE_USAGE( .BOTH., #119 );
#71 = FACE_OUTER_BOUND( '', #120, .T. );
#72 = FACE_OUTER_BOUND( '', #121, .T. );
#73 = CYLINDRICAL_SURFACE( '', #122, 9.00000000000000 );
#74 = SURFACE_STYLE_USAGE( .BOTH., #123 );
#75 = FACE_OUTER_BOUND( '', #124, .T. );
#76 = FACE_OUTER_BOUND( '', #125, .T. );
#77 = CYLINDRICAL_SURFACE( '', #126, 21.0000000000000 );
#78 = SURFACE_STYLE_USAGE( .BOTH., #127 );
#79 = FACE_OUTER_BOUND( '', #128, .T. );
#80 = PLANE( '', #129 );
#81 = SURFACE_STYLE_USAGE( .BOTH., #130 );
#82 = FACE_BOUND( '', #131, .T. );
#83 = FACE_BOUND( '', #132, .T. );
#84 = FACE_BOUND( '', #133, .T. );
#85 = FACE_BOUND( '', #134, .T. );
#86 = FACE_OUTER_BOUND( '', #135, .T. );
#87 = PLANE( '', #136 );
#88 = SURFACE_STYLE_USAGE( .BOTH., #137 );
#89 = FACE_BOUND( '', #138, .T. );
#90 = FACE_BOUND( '', #139, .T. );
#91 = FACE_BOUND( '', #140, .T. );
#92 = FACE_BOUND( '', #141, .T. );
#93 = FACE_OUTER_BOUND( '', #142, .T. );
#94 = PLANE( '', #143 );
#95 = SURFACE_STYLE_USAGE( .BOTH., #144 );
#96 = FACE_OUTER_BOUND( '', #145, .T. );
#97 = PLANE( '', #146 );
#98 = SURFACE_STYLE_USAGE( .BOTH., #147 );
#99 = FACE_OUTER_BOUND( '', #148, .T. );
#100 = PLANE( '', #149 );
#101 = SURFACE_STYLE_USAGE( .BOTH., #150 );
#102 = FACE_OUTER_BOUND( '', #151, .T. );
#103 = PLANE( '', #152 );
#104 = SURFACE_STYLE_USAGE( .BOTH., #153 );
#105 = FACE_OUTER_BOUND( '', #154, .T. );
#106 = FACE_OUTER_BOUND( '', #155, .T. );
#107 = CYLINDRICAL_SURFACE( '', #156, 21.0000000000000 );
#108 = SURFACE_STYLE_USAGE( .BOTH., #157 );
#109 = FACE_OUTER_BOUND( '', #158, .T. );
#110 = FACE_OUTER_BOUND( '', #159, .T. );
#111 = CYLINDRICAL_SURFACE( '', #160, 9.00000000000000 );
#112 = PRODUCT_CONTEXT( '', #20, 'mechanical' );
#113 = PRODUCT_DEFINITION_FORMATION_WITH_SPECIFIED_SOURCE( ' ', 'NONE', #53, .NOT_KNOWN. );
#114 = CLOSED_SHELL( '', ( #34, #40, #46, #42, #48, #38, #44, #52, #50, #36 ) );
#115 = CARTESIAN_POINT( '', ( 0.000000000000000, 0.000000000000000, 0.000000000000000 ) );
#116 = DIRECTION( '', ( 0.000000000000000, 0.000000000000000, 1.00000000000000 ) );
#117 = DIRECTION( '', ( 1.00000000000000, 0.000000000000000, 0.000000000000000 ) );
#118 =  ( LENGTH_UNIT(  )NAMED_UNIT( #62 )SI_UNIT( .MILLI., .METRE. ) );
#119 = SURFACE_SIDE_STYLE( '', ( #162 ) );
#120 = EDGE_LOOP( '', ( #163 ) );
#121 = EDGE_LOOP( '', ( #164 ) );
#122 = AXIS2_PLACEMENT_3D( '', #165, #166, #167 );
#123 = SURFACE_SIDE_STYLE( '', ( #168 ) );
#124 = EDGE_LOOP( '', ( #169 ) );
#125 = EDGE_LOOP( '', ( #170 ) );
#126 = AXIS2_PLACEMENT_3D( '', #171, #172, #173 );
#127 = SURFACE_SIDE_STYLE( '', ( #174 ) );
#128 = EDGE_LOOP( '', ( #175, #176, #177, #178 ) );
#129 = AXIS2_PLACEMENT_3D( '', #179, #180, #181 );
#130 = SURFACE_SIDE_STYLE( '', ( #182 ) );
#131 = EDGE_LOOP( '', ( #183 ) );
#132 = EDGE_LOOP( '', ( #184 ) );
#133 = EDGE_LOOP( '', ( #185 ) );
#134 = EDGE_LOOP( '', ( #186 ) );
#135 = EDGE_LOOP( '', ( #187, #188, #189, #190 ) );
#136 = AXIS2_PLACEMENT_3D( '', #191, #192, #193 );
#137 = SURFACE_SIDE_STYLE( '', ( #194 ) );
#138 = EDGE_LOOP( '', ( #195 ) );
#139 = EDGE_LOOP( '', ( #196 ) );
#140 = EDGE_LOOP( '', ( #197 ) );
#141 = EDGE_LOOP( '', ( #198 ) );
#142 = EDGE_LOOP( '', ( #199, #200, #201, #202 ) );
#143 = AXIS2_PLACEMENT_3D( '', #203, #204, #205 );
#144 = SURFACE_SIDE_STYLE( '', ( #206 ) );
#145 = EDGE_LOOP( '', ( #207, #208, #209, #210 ) );
#146 = AXIS2_PLACEMENT_3D( '', #211, #212, #213 );
#147 = SURFACE_SIDE_STYLE( '', ( #214 ) );
#148 = EDGE_LOOP( '', ( #215, #216, #217, #218 ) );
#149 = AXIS2_PLACEMENT_3D( '', #219, #220, #221 );
#150 = SURFACE_SIDE_STYLE( '', ( #222 ) );
#151 = EDGE_LOOP( '', ( #223, #224, #225, #226 ) );
#152 = AXIS2_PLACEMENT_3D( '', #227, #228, #229 );
#153 = SURFACE_SIDE_STYLE( '', ( #230 ) );
#154 = EDGE_LOOP( '', ( #231 ) );
#155 = EDGE_LOOP( '', ( #232 ) );
#156 = AXIS2_PLACEMENT_3D( '', #233, #234, #235 );
#157 = SURFACE_SIDE_STYLE( '', ( #236 ) );
#158 = EDGE_LOOP( '', ( #237 ) );
#159 = EDGE_LOOP( '', ( #238 ) );
#160 = AXIS2_PLACEMENT_3D( '', #239, #240, #241 );
#162 = SURFACE_STYLE_FILL_AREA( #242 );
#163 = ORIENTED_EDGE( '', *, *, #243, .F. );
#164 = ORIENTED_EDGE( '', *, *, #244, .F. );
#165 = CARTESIAN_POINT( '', ( -315.000000000000, 5.00000000000000, 96.0000000000000 ) );
#166 = DIRECTION( '', ( -0.000000000000000, -0.000000000000000, 1.00000000000000 ) );
#167 = DIRECTION( '', ( 0.000000000000000, -1.00000000000000, 0.000000000000000 ) );
#168 = SURFACE_STYLE_FILL_AREA( #245 );
#169 = ORIENTED_EDGE( '', *, *, #246, .F. );
#170 = ORIENTED_EDGE( '', *, *, #247, .F. );
#171 = CARTESIAN_POINT( '', ( -362.000000000000, 5.00000000000000, 96.0000000000000 ) );
#172 = DIRECTION( '', ( -0.000000000000000, -0.000000000000000, 1.00000000000000 ) );
#173 = DIRECTION( '', ( 0.000000000000000, -1.00000000000000, 0.000000000000000 ) );
#174 = SURFACE_STYLE_FILL_AREA( #248 );
#175 = ORIENTED_EDGE( '', *, *, #249, .T. );
#176 = ORIENTED_EDGE( '', *, *, #250, .F. );
#177 = ORIENTED_EDGE( '', *, *, #251, .F. );
#178 = ORIENTED_EDGE( '', *, *, #252, .T. );
#179 = CARTESIAN_POINT( '', ( 398.000000000000, 31.0000000000000, 96.0000000000000 ) );
#180 = DIRECTION( '', ( -3.05102118890394E-017, -1.00000000000000, 0.000000000000000 ) );
#181 = DIRECTION( '', ( 1.00000000000000, -3.05102118890394E-017, 0.000000000000000 ) );
#182 = SURFACE_STYLE_FILL_AREA( #253 );
#183 = ORIENTED_EDGE( '', *, *, #247, .T. );
#184 = ORIENTED_EDGE( '', *, *, #254, .T. );
#185 = ORIENTED_EDGE( '', *, *, #255, .T. );
#186 = ORIENTED_EDGE( '', *, *, #244, .T. );
#187 = ORIENTED_EDGE( '', *, *, #249, .F. );
#188 = ORIENTED_EDGE( '', *, *, #256, .F. );
#189 = ORIENTED_EDGE( '', *, *, #257, .F. );
#190 = ORIENTED_EDGE( '', *, *, #258, .F. );
#191 = CARTESIAN_POINT( '', ( -398.000000000000, 31.0000000000000, 0.000000000000000 ) );
#192 = DIRECTION( '', ( 0.000000000000000, 0.000000000000000, 1.00000000000000 ) );
#193 = DIRECTION( '', ( 1.00000000000000, 0.000000000000000, 0.000000000000000 ) );
#194 = SURFACE_STYLE_FILL_AREA( #259 );
#195 = ORIENTED_EDGE( '', *, *, #246, .T. );
#196 = ORIENTED_EDGE( '', *, *, #260, .T. );
#197 = ORIENTED_EDGE( '', *, *, #261, .T. );
#198 = ORIENTED_EDGE( '', *, *, #243, .T. );
#199 = ORIENTED_EDGE( '', *, *, #251, .T. );
#200 = ORIENTED_EDGE( '', *, *, #262, .T. );
#201 = ORIENTED_EDGE( '', *, *, #263, .T. );
#202 = ORIENTED_EDGE( '', *, *, #264, .T. );
#203 = CARTESIAN_POINT( '', ( -398.000000000000, 31.0000000000000, 96.0000000000000 ) );
#204 = DIRECTION( '', ( 0.000000000000000, 0.000000000000000, 1.00000000000000 ) );
#205 = DIRECTION( '', ( 1.00000000000000, 0.000000000000000, 0.000000000000000 ) );
#206 = SURFACE_STYLE_FILL_AREA( #265 );
#207 = ORIENTED_EDGE( '', *, *, #258, .T. );
#208 = ORIENTED_EDGE( '', *, *, #266, .F. );
#209 = ORIENTED_EDGE( '', *, *, #262, .F. );
#210 = ORIENTED_EDGE( '', *, *, #250, .T. );
#211 = CARTESIAN_POINT( '', ( -398.000000000000, 31.0000000000000, 96.0000000000000 ) );
#212 = DIRECTION( '', ( 1.00000000000000, 0.000000000000000, 0.000000000000000 ) );
#213 = DIRECTION( '', ( 0.000000000000000, 0.000000000000000, -1.00000000000000 ) );
#214 = SURFACE_STYLE_FILL_AREA( #267 );
#215 = ORIENTED_EDGE( '', *, *, #256, .T. );
#216 = ORIENTED_EDGE( '', *, *, #252, .F. );
#217 = ORIENTED_EDGE( '', *, *, #264, .F. );
#218 = ORIENTED_EDGE( '', *, *, #268, .T. );
#219 = CARTESIAN_POINT( '', ( 398.000000000000, -31.0000000000000, 96.0000000000000 ) );
#220 = DIRECTION( '', ( -1.00000000000000, 0.000000000000000, 0.000000000000000 ) );
#221 = DIRECTION( '', ( 0.000000000000000, 0.000000000000000, 1.00000000000000 ) );
#222 = SURFACE_STYLE_FILL_AREA( #269 );
#223 = ORIENTED_EDGE( '', *, *, #257, .T. );
#224 = ORIENTED_EDGE( '', *, *, #268, .F. );
#225 = ORIENTED_EDGE( '', *, *, #263, .F. );
#226 = ORIENTED_EDGE( '', *, *, #266, .T. );
#227 = CARTESIAN_POINT( '', ( -398.000000000000, -31.0000000000000, 96.0000000000000 ) );
#228 = DIRECTION( '', ( 5.66618220796445E-017, 1.00000000000000, 0.000000000000000 ) );
#229 = DIRECTION( '', ( -1.00000000000000, 5.66618220796445E-017, 0.000000000000000 ) );
#230 = SURFACE_STYLE_FILL_AREA( #270 );
#231 = ORIENTED_EDGE( '', *, *, #260, .F. );
#232 = ORIENTED_EDGE( '', *, *, #254, .F. );
#233 = CARTESIAN_POINT( '', ( 362.000000000000, 5.00000000000000, 96.0000000000000 ) );
#234 = DIRECTION( '', ( -0.000000000000000, -0.000000000000000, 1.00000000000000 ) );
#235 = DIRECTION( '', ( 0.000000000000000, -1.00000000000000, 0.000000000000000 ) );
#236 = SURFACE_STYLE_FILL_AREA( #271 );
#237 = ORIENTED_EDGE( '', *, *, #261, .F. );
#238 = ORIENTED_EDGE( '', *, *, #255, .F. );
#239 = CARTESIAN_POINT( '', ( 315.000000000000, 5.00000000000008, 96.0000000000000 ) );
#240 = DIRECTION( '', ( -0.000000000000000, -0.000000000000000, 1.00000000000000 ) );
#241 = DIRECTION( '', ( 0.000000000000000, -1.00000000000000, 0.000000000000000 ) );
#242 = FILL_AREA_STYLE( '', ( #272 ) );
#243 = EDGE_CURVE( '', #273, #273, #274, .T. );
#244 = EDGE_CURVE( '', #275, #275, #276, .T. );
#245 = FILL_AREA_STYLE( '', ( #277 ) );
#246 = EDGE_CURVE( '', #278, #278, #279, .T. );
#247 = EDGE_CURVE( '', #280, #280, #281, .T. );
#248 = FILL_AREA_STYLE( '', ( #282 ) );
#249 = EDGE_CURVE( '', #283, #284, #285, .T. );
#250 = EDGE_CURVE( '', #286, #284, #287, .T. );
#251 = EDGE_CURVE( '', #288, #286, #289, .T. );
#252 = EDGE_CURVE( '', #288, #283, #290, .T. );
#253 = FILL_AREA_STYLE( '', ( #291 ) );
#254 = EDGE_CURVE( '', #292, #292, #293, .T. );
#255 = EDGE_CURVE( '', #294, #294, #295, .T. );
#256 = EDGE_CURVE( '', #296, #283, #297, .T. );
#257 = EDGE_CURVE( '', #298, #296, #299, .T. );
#258 = EDGE_CURVE( '', #284, #298, #300, .T. );
#259 = FILL_AREA_STYLE( '', ( #301 ) );
#260 = EDGE_CURVE( '', #302, #302, #303, .T. );
#261 = EDGE_CURVE( '', #304, #304, #305, .T. );
#262 = EDGE_CURVE( '', #286, #306, #307, .T. );
#263 = EDGE_CURVE( '', #306, #308, #309, .T. );
#264 = EDGE_CURVE( '', #308, #288, #310, .T. );
#265 = FILL_AREA_STYLE( '', ( #311 ) );
#266 = EDGE_CURVE( '', #306, #298, #312, .T. );
#267 = FILL_AREA_STYLE( '', ( #313 ) );
#268 = EDGE_CURVE( '', #308, #296, #314, .T. );
#269 = FILL_AREA_STYLE( '', ( #315 ) );
#270 = FILL_AREA_STYLE( '', ( #316 ) );
#271 = FILL_AREA_STYLE( '', ( #317 ) );
#272 = FILL_AREA_STYLE_COLOUR( '', #318 );
#273 = VERTEX_POINT( '', #319 );
#274 = CIRCLE( '', #320, 9.00000000000000 );
#275 = VERTEX_POINT( '', #321 );
#276 = CIRCLE( '', #322, 9.00000000000000 );
#277 = FILL_AREA_STYLE_COLOUR( '', #323 );
#278 = VERTEX_POINT( '', #324 );
#279 = CIRCLE( '', #325, 21.0000000000000 );
#280 = VERTEX_POINT( '', #326 );
#281 = CIRCLE( '', #327, 21.0000000000000 );
#282 = FILL_AREA_STYLE_COLOUR( '', #328 );
#283 = VERTEX_POINT( '', #329 );
#284 = VERTEX_POINT( '', #330 );
#285 = LINE( '', #331, #332 );
#286 = VERTEX_POINT( '', #333 );
#287 = LINE( '', #334, #335 );
#288 = VERTEX_POINT( '', #336 );
#289 = LINE( '', #337, #338 );
#290 = LINE( '', #339, #340 );
#291 = FILL_AREA_STYLE_COLOUR( '', #341 );
#292 = VERTEX_POINT( '', #342 );
#293 = CIRCLE( '', #343, 21.0000000000000 );
#294 = VERTEX_POINT( '', #344 );
#295 = CIRCLE( '', #345, 9.00000000000000 );
#296 = VERTEX_POINT( '', #346 );
#297 = LINE( '', #347, #348 );
#298 = VERTEX_POINT( '', #349 );
#299 = LINE( '', #350, #351 );
#300 = LINE( '', #352, #353 );
#301 = FILL_AREA_STYLE_COLOUR( '', #354 );
#302 = VERTEX_POINT( '', #355 );
#303 = CIRCLE( '', #356, 21.0000000000000 );
#304 = VERTEX_POINT( '', #357 );
#305 = CIRCLE( '', #358, 9.00000000000000 );
#306 = VERTEX_POINT( '', #359 );
#307 = LINE( '', #360, #361 );
#308 = VERTEX_POINT( '', #362 );
#309 = LINE( '', #363, #364 );
#310 = LINE( '', #365, #366 );
#311 = FILL_AREA_STYLE_COLOUR( '', #367 );
#312 = LINE( '', #368, #369 );
#313 = FILL_AREA_STYLE_COLOUR( '', #370 );
#314 = LINE( '', #371, #372 );
#315 = FILL_AREA_STYLE_COLOUR( '', #373 );
#316 = FILL_AREA_STYLE_COLOUR( '', #374 );
#317 = FILL_AREA_STYLE_COLOUR( '', #375 );
#318 = COLOUR_RGB( '', 0.752941191196442, 0.752941191196442, 0.752941191196442 );
#319 = CARTESIAN_POINT( '', ( -315.000000000000, -4.00000000000000, 96.0000000000000 ) );
#320 = AXIS2_PLACEMENT_3D( '', #376, #377, #378 );
#321 = CARTESIAN_POINT( '', ( -306.000000000000, 5.00000000000000, 0.000000000000000 ) );
#322 = AXIS2_PLACEMENT_3D( '', #379, #380, #381 );
#323 = COLOUR_RGB( '', 0.752941191196442, 0.752941191196442, 0.752941191196442 );
#324 = CARTESIAN_POINT( '', ( -362.000000000000, -16.0000000000000, 96.0000000000000 ) );
#325 = AXIS2_PLACEMENT_3D( '', #382, #383, #384 );
#326 = CARTESIAN_POINT( '', ( -341.000000000000, 5.00000000000000, 0.000000000000000 ) );
#327 = AXIS2_PLACEMENT_3D( '', #385, #386, #387 );
#328 = COLOUR_RGB( '', 0.752941191196442, 0.752941191196442, 0.752941191196442 );
#329 = CARTESIAN_POINT( '', ( 398.000000000000, 31.0000000000000, 0.000000000000000 ) );
#330 = CARTESIAN_POINT( '', ( -398.000000000000, 31.0000000000000, 0.000000000000000 ) );
#331 = CARTESIAN_POINT( '', ( 398.000000000000, 31.0000000000000, 0.000000000000000 ) );
#332 = VECTOR( '', #388, 1000.00000000000 );
#333 = CARTESIAN_POINT( '', ( -398.000000000000, 31.0000000000000, 96.0000000000000 ) );
#334 = CARTESIAN_POINT( '', ( -398.000000000000, 31.0000000000000, 96.0000000000000 ) );
#335 = VECTOR( '', #389, 1000.00000000000 );
#336 = CARTESIAN_POINT( '', ( 398.000000000000, 31.0000000000000, 96.0000000000000 ) );
#337 = CARTESIAN_POINT( '', ( 398.000000000000, 31.0000000000000, 96.0000000000000 ) );
#338 = VECTOR( '', #390, 1000.00000000000 );
#339 = CARTESIAN_POINT( '', ( 398.000000000000, 31.0000000000000, 96.0000000000000 ) );
#340 = VECTOR( '', #391, 1000.00000000000 );
#341 = COLOUR_RGB( '', 0.752941191196442, 0.752941191196442, 0.752941191196442 );
#342 = CARTESIAN_POINT( '', ( 383.000000000000, 5.00000000000000, 0.000000000000000 ) );
#343 = AXIS2_PLACEMENT_3D( '', #392, #393, #394 );
#344 = CARTESIAN_POINT( '', ( 324.000000000000, 5.00000000000008, 0.000000000000000 ) );
#345 = AXIS2_PLACEMENT_3D( '', #395, #396, #397 );
#346 = CARTESIAN_POINT( '', ( 398.000000000000, -31.0000000000000, 0.000000000000000 ) );
#347 = CARTESIAN_POINT( '', ( 398.000000000000, -31.0000000000000, 0.000000000000000 ) );
#348 = VECTOR( '', #398, 1000.00000000000 );
#349 = CARTESIAN_POINT( '', ( -398.000000000000, -31.0000000000000, 0.000000000000000 ) );
#350 = CARTESIAN_POINT( '', ( -398.000000000000, -31.0000000000000, 0.000000000000000 ) );
#351 = VECTOR( '', #399, 1000.00000000000 );
#352 = CARTESIAN_POINT( '', ( -398.000000000000, 31.0000000000000, 0.000000000000000 ) );
#353 = VECTOR( '', #400, 1000.00000000000 );
#354 = COLOUR_RGB( '', 0.752941191196442, 0.752941191196442, 0.752941191196442 );
#355 = CARTESIAN_POINT( '', ( 362.000000000000, -16.0000000000000, 96.0000000000000 ) );
#356 = AXIS2_PLACEMENT_3D( '', #401, #402, #403 );
#357 = CARTESIAN_POINT( '', ( 315.000000000000, -3.99999999999992, 96.0000000000000 ) );
#358 = AXIS2_PLACEMENT_3D( '', #404, #405, #406 );
#359 = CARTESIAN_POINT( '', ( -398.000000000000, -31.0000000000000, 96.0000000000000 ) );
#360 = CARTESIAN_POINT( '', ( -398.000000000000, 31.0000000000000, 96.0000000000000 ) );
#361 = VECTOR( '', #407, 1000.00000000000 );
#362 = CARTESIAN_POINT( '', ( 398.000000000000, -31.0000000000000, 96.0000000000000 ) );
#363 = CARTESIAN_POINT( '', ( -398.000000000000, -31.0000000000000, 96.0000000000000 ) );
#364 = VECTOR( '', #408, 1000.00000000000 );
#365 = CARTESIAN_POINT( '', ( 398.000000000000, -31.0000000000000, 96.0000000000000 ) );
#366 = VECTOR( '', #409, 1000.00000000000 );
#367 = COLOUR_RGB( '', 0.752941191196442, 0.752941191196442, 0.752941191196442 );
#368 = CARTESIAN_POINT( '', ( -398.000000000000, -31.0000000000000, 96.0000000000000 ) );
#369 = VECTOR( '', #410, 1000.00000000000 );
#370 = COLOUR_RGB( '', 0.752941191196442, 0.752941191196442, 0.752941191196442 );
#371 = CARTESIAN_POINT( '', ( 398.000000000000, -31.0000000000000, 96.0000000000000 ) );
#372 = VECTOR( '', #411, 1000.00000000000 );
#373 = COLOUR_RGB( '', 0.752941191196442, 0.752941191196442, 0.752941191196442 );
#374 = COLOUR_RGB( '', 0.752941191196442, 0.752941191196442, 0.752941191196442 );
#375 = COLOUR_RGB( '', 0.752941191196442, 0.752941191196442, 0.752941191196442 );
#376 = CARTESIAN_POINT( '', ( -315.000000000000, 5.00000000000000, 96.0000000000000 ) );
#377 = DIRECTION( '', ( 0.000000000000000, 0.000000000000000, -1.00000000000000 ) );
#378 = DIRECTION( '', ( 0.000000000000000, -1.00000000000000, 0.000000000000000 ) );
#379 = CARTESIAN_POINT( '', ( -315.000000000000, 5.00000000000000, 0.000000000000000 ) );
#380 = DIRECTION( '', ( 0.000000000000000, 0.000000000000000, 1.00000000000000 ) );
#381 = DIRECTION( '', ( 1.00000000000000, 0.000000000000000, 0.000000000000000 ) );
#382 = CARTESIAN_POINT( '', ( -362.000000000000, 5.00000000000000, 96.0000000000000 ) );
#383 = DIRECTION( '', ( 0.000000000000000, 0.000000000000000, -1.00000000000000 ) );
#384 = DIRECTION( '', ( 0.000000000000000, -1.00000000000000, 0.000000000000000 ) );
#385 = CARTESIAN_POINT( '', ( -362.000000000000, 5.00000000000000, 0.000000000000000 ) );
#386 = DIRECTION( '', ( 0.000000000000000, 0.000000000000000, 1.00000000000000 ) );
#387 = DIRECTION( '', ( 1.00000000000000, 0.000000000000000, 0.000000000000000 ) );
#388 = DIRECTION( '', ( -1.00000000000000, 3.05102118890394E-017, 0.000000000000000 ) );
#389 = DIRECTION( '', ( 0.000000000000000, 0.000000000000000, -1.00000000000000 ) );
#390 = DIRECTION( '', ( -1.00000000000000, 3.05102118890394E-017, 0.000000000000000 ) );
#391 = DIRECTION( '', ( 0.000000000000000, 0.000000000000000, -1.00000000000000 ) );
#392 = CARTESIAN_POINT( '', ( 362.000000000000, 5.00000000000000, 0.000000000000000 ) );
#393 = DIRECTION( '', ( 0.000000000000000, 0.000000000000000, 1.00000000000000 ) );
#394 = DIRECTION( '', ( 1.00000000000000, 0.000000000000000, 0.000000000000000 ) );
#395 = CARTESIAN_POINT( '', ( 315.000000000000, 5.00000000000008, 0.000000000000000 ) );
#396 = DIRECTION( '', ( 0.000000000000000, 0.000000000000000, 1.00000000000000 ) );
#397 = DIRECTION( '', ( 1.00000000000000, 0.000000000000000, 0.000000000000000 ) );
#398 = DIRECTION( '', ( 0.000000000000000, 1.00000000000000, 0.000000000000000 ) );
#399 = DIRECTION( '', ( 1.00000000000000, -5.66618220796445E-017, 0.000000000000000 ) );
#400 = DIRECTION( '', ( 0.000000000000000, -1.00000000000000, 0.000000000000000 ) );
#401 = CARTESIAN_POINT( '', ( 362.000000000000, 5.00000000000000, 96.0000000000000 ) );
#402 = DIRECTION( '', ( 0.000000000000000, 0.000000000000000, -1.00000000000000 ) );
#403 = DIRECTION( '', ( 0.000000000000000, -1.00000000000000, 0.000000000000000 ) );
#404 = CARTESIAN_POINT( '', ( 315.000000000000, 5.00000000000008, 96.0000000000000 ) );
#405 = DIRECTION( '', ( 0.000000000000000, 0.000000000000000, -1.00000000000000 ) );
#406 = DIRECTION( '', ( 0.000000000000000, -1.00000000000000, 0.000000000000000 ) );
#407 = DIRECTION( '', ( 0.000000000000000, -1.00000000000000, 0.000000000000000 ) );
#408 = DIRECTION( '', ( 1.00000000000000, -5.66618220796445E-017, 0.000000000000000 ) );
#409 = DIRECTION( '', ( 0.000000000000000, 1.00000000000000, 0.000000000000000 ) );
#410 = DIRECTION( '', ( 0.000000000000000, 0.000000000000000, -1.00000000000000 ) );
#411 = DIRECTION( '', ( 0.000000000000000, 0.000000000000000, -1.00000000000000 ) );
ENDSEC;
END-ISO-10303-21;
