ISO-10303-21;
HEADER;
FILE_DESCRIPTION( ( 'Unknown' ), '1' );
FILE_NAME( 'M:/Piezas_3D/Placas_Par/G2/OS_G2_496x796x096_.stp', 'Unknown', ( 'Unknown' ), ( 'Unknown' ), 'PSStep 16.0.42', 'Unknown', '  ' );
FILE_SCHEMA( ( 'AUTOMOTIVE_DESIGN { 1 0 10303 214 1 1 1 1 }' ) );
ENDSEC;
DATA;
#1 = MECHANICAL_DESIGN_GEOMETRIC_PRESENTATION_REPRESENTATION( ' ', ( #10, #11, #12, #13, #14, #15, #16, #17, #18, #19 ), #6 );
#2 = PRODUCT_DEFINITION_CONTEXT( '', #20, 'design' );
#3 = APPLICATION_PROTOCOL_DEFINITION( 'international standard', 'automotive_design', 2001, #20 );
#4 = PRODUCT_CATEGORY_RELATIONSHIP( 'NONE', 'NONE', #21, #22 );
#5 = SHAPE_DEFINITION_REPRESENTATION( #23, #24 );
#6 =  ( GEOMETRIC_REPRESENTATION_CONTEXT( 3 )GLOBAL_UNCERTAINTY_ASSIGNED_CONTEXT( ( #27 ) )GLOBAL_UNIT_ASSIGNED_CONTEXT( ( #29, #30, #31 ) )REPRESENTATION_CONTEXT( 'NONE', 'WORKSPACE' ) );
#10 = STYLED_ITEM( '', ( #33 ), #34 );
#11 = STYLED_ITEM( '', ( #35 ), #36 );
#12 = STYLED_ITEM( '', ( #37 ), #38 );
#13 = STYLED_ITEM( '', ( #39 ), #40 );
#14 = STYLED_ITEM( '', ( #41 ), #42 );
#15 = STYLED_ITEM( '', ( #43 ), #44 );
#16 = STYLED_ITEM( '', ( #45 ), #46 );
#17 = STYLED_ITEM( '', ( #47 ), #48 );
#18 = STYLED_ITEM( '', ( #49 ), #50 );
#19 = STYLED_ITEM( '', ( #51 ), #52 );
#20 = APPLICATION_CONTEXT( 'core data for automotive mechanical design processes' );
#21 = PRODUCT_CATEGORY( 'part', 'NONE' );
#22 = PRODUCT_RELATED_PRODUCT_CATEGORY( 'detail', ' ', ( #53 ) );
#23 = PRODUCT_DEFINITION_SHAPE( 'NONE', 'NONE', #54 );
#24 = ADVANCED_BREP_SHAPE_REPRESENTATION( '1', ( #55, #56 ), #6 );
#27 = UNCERTAINTY_MEASURE_WITH_UNIT( LENGTH_MEASURE( 0.00100000000000000 ), #29, '', '' );
#29 =  ( CONVERSION_BASED_UNIT( 'MILLIMETRE', #59 )LENGTH_UNIT(  )NAMED_UNIT( #62 ) );
#30 =  ( NAMED_UNIT( #64 )PLANE_ANGLE_UNIT(  )SI_UNIT( $, .RADIAN. ) );
#31 =  ( NAMED_UNIT( #64 )SI_UNIT( $, .STERADIAN. )SOLID_ANGLE_UNIT(  ) );
#33 = PRESENTATION_STYLE_ASSIGNMENT( ( #70 ) );
#34 = ADVANCED_FACE( '', ( #71 ), #72, .F. );
#35 = PRESENTATION_STYLE_ASSIGNMENT( ( #73 ) );
#36 = ADVANCED_FACE( '', ( #74 ), #75, .F. );
#37 = PRESENTATION_STYLE_ASSIGNMENT( ( #76 ) );
#38 = ADVANCED_FACE( '', ( #77, #78, #79, #80, #81 ), #82, .F. );
#39 = PRESENTATION_STYLE_ASSIGNMENT( ( #83 ) );
#40 = ADVANCED_FACE( '', ( #84, #85, #86, #87, #88 ), #89, .T. );
#41 = PRESENTATION_STYLE_ASSIGNMENT( ( #90 ) );
#42 = ADVANCED_FACE( '', ( #91, #92 ), #93, .F. );
#43 = PRESENTATION_STYLE_ASSIGNMENT( ( #94 ) );
#44 = ADVANCED_FACE( '', ( #95 ), #96, .F. );
#45 = PRESENTATION_STYLE_ASSIGNMENT( ( #97 ) );
#46 = ADVANCED_FACE( '', ( #98, #99 ), #100, .F. );
#47 = PRESENTATION_STYLE_ASSIGNMENT( ( #101 ) );
#48 = ADVANCED_FACE( '', ( #102 ), #103, .F. );
#49 = PRESENTATION_STYLE_ASSIGNMENT( ( #104 ) );
#50 = ADVANCED_FACE( '', ( #105, #106 ), #107, .F. );
#51 = PRESENTATION_STYLE_ASSIGNMENT( ( #108 ) );
#52 = ADVANCED_FACE( '', ( #109, #110 ), #111, .F. );
#53 = PRODUCT( '1', '1', 'PART-1-DESC', ( #112 ) );
#54 = PRODUCT_DEFINITION( 'NONE', 'NONE', #113, #2 );
#55 = MANIFOLD_SOLID_BREP( '1', #114 );
#56 = AXIS2_PLACEMENT_3D( '', #115, #116, #117 );
#59 = LENGTH_MEASURE_WITH_UNIT( LENGTH_MEASURE( 1.00000000000000 ), #118 );
#62 = DIMENSIONAL_EXPONENTS( 1.00000000000000, 0.000000000000000, 0.000000000000000, 0.000000000000000, 0.000000000000000, 0.000000000000000, 0.000000000000000 );
#64 = DIMENSIONAL_EXPONENTS( 0.000000000000000, 0.000000000000000, 0.000000000000000, 0.000000000000000, 0.000000000000000, 0.000000000000000, 0.000000000000000 );
#70 = SURFACE_STYLE_USAGE( .BOTH., #119 );
#71 = FACE_OUTER_BOUND( '', #120, .T. );
#72 = PLANE( '', #121 );
#73 = SURFACE_STYLE_USAGE( .BOTH., #122 );
#74 = FACE_OUTER_BOUND( '', #123, .T. );
#75 = PLANE( '', #124 );
#76 = SURFACE_STYLE_USAGE( .BOTH., #125 );
#77 = FACE_BOUND( '', #126, .T. );
#78 = FACE_BOUND( '', #127, .T. );
#79 = FACE_BOUND( '', #128, .T. );
#80 = FACE_BOUND( '', #129, .T. );
#81 = FACE_OUTER_BOUND( '', #130, .T. );
#82 = PLANE( '', #131 );
#83 = SURFACE_STYLE_USAGE( .BOTH., #132 );
#84 = FACE_BOUND( '', #133, .T. );
#85 = FACE_BOUND( '', #134, .T. );
#86 = FACE_BOUND( '', #135, .T. );
#87 = FACE_BOUND( '', #136, .T. );
#88 = FACE_OUTER_BOUND( '', #137, .T. );
#89 = PLANE( '', #138 );
#90 = SURFACE_STYLE_USAGE( .BOTH., #139 );
#91 = FACE_OUTER_BOUND( '', #140, .T. );
#92 = FACE_OUTER_BOUND( '', #141, .T. );
#93 = CYLINDRICAL_SURFACE( '', #142, 11.0000000000000 );
#94 = SURFACE_STYLE_USAGE( .BOTH., #143 );
#95 = FACE_OUTER_BOUND( '', #144, .T. );
#96 = PLANE( '', #145 );
#97 = SURFACE_STYLE_USAGE( .BOTH., #146 );
#98 = FACE_OUTER_BOUND( '', #147, .T. );
#99 = FACE_OUTER_BOUND( '', #148, .T. );
#100 = CYLINDRICAL_SURFACE( '', #149, 27.0000000000000 );
#101 = SURFACE_STYLE_USAGE( .BOTH., #150 );
#102 = FACE_OUTER_BOUND( '', #151, .T. );
#103 = PLANE( '', #152 );
#104 = SURFACE_STYLE_USAGE( .BOTH., #153 );
#105 = FACE_OUTER_BOUND( '', #154, .T. );
#106 = FACE_OUTER_BOUND( '', #155, .T. );
#107 = CYLINDRICAL_SURFACE( '', #156, 11.0000000000000 );
#108 = SURFACE_STYLE_USAGE( .BOTH., #157 );
#109 = FACE_OUTER_BOUND( '', #158, .T. );
#110 = FACE_OUTER_BOUND( '', #159, .T. );
#111 = CYLINDRICAL_SURFACE( '', #160, 27.0000000000000 );
#112 = PRODUCT_CONTEXT( '', #20, 'mechanical' );
#113 = PRODUCT_DEFINITION_FORMATION_WITH_SPECIFIED_SOURCE( ' ', 'NONE', #53, .NOT_KNOWN. );
#114 = CLOSED_SHELL( '', ( #50, #38, #44, #40, #48, #34, #36, #42, #46, #52 ) );
#115 = CARTESIAN_POINT( '', ( 0.000000000000000, 0.000000000000000, 0.000000000000000 ) );
#116 = DIRECTION( '', ( 0.000000000000000, 0.000000000000000, 1.00000000000000 ) );
#117 = DIRECTION( '', ( 1.00000000000000, 0.000000000000000, 0.000000000000000 ) );
#118 =  ( LENGTH_UNIT(  )NAMED_UNIT( #62 )SI_UNIT( .MILLI., .METRE. ) );
#119 = SURFACE_SIDE_STYLE( '', ( #162 ) );
#120 = EDGE_LOOP( '', ( #163, #164, #165, #166 ) );
#121 = AXIS2_PLACEMENT_3D( '', #167, #168, #169 );
#122 = SURFACE_SIDE_STYLE( '', ( #170 ) );
#123 = EDGE_LOOP( '', ( #171, #172, #173, #174 ) );
#124 = AXIS2_PLACEMENT_3D( '', #175, #176, #177 );
#125 = SURFACE_SIDE_STYLE( '', ( #178 ) );
#126 = EDGE_LOOP( '', ( #179 ) );
#127 = EDGE_LOOP( '', ( #180 ) );
#128 = EDGE_LOOP( '', ( #181 ) );
#129 = EDGE_LOOP( '', ( #182 ) );
#130 = EDGE_LOOP( '', ( #183, #184, #185, #186 ) );
#131 = AXIS2_PLACEMENT_3D( '', #187, #188, #189 );
#132 = SURFACE_SIDE_STYLE( '', ( #190 ) );
#133 = EDGE_LOOP( '', ( #191 ) );
#134 = EDGE_LOOP( '', ( #192 ) );
#135 = EDGE_LOOP( '', ( #193 ) );
#136 = EDGE_LOOP( '', ( #194 ) );
#137 = EDGE_LOOP( '', ( #195, #196, #197, #198 ) );
#138 = AXIS2_PLACEMENT_3D( '', #199, #200, #201 );
#139 = SURFACE_SIDE_STYLE( '', ( #202 ) );
#140 = EDGE_LOOP( '', ( #203 ) );
#141 = EDGE_LOOP( '', ( #204 ) );
#142 = AXIS2_PLACEMENT_3D( '', #205, #206, #207 );
#143 = SURFACE_SIDE_STYLE( '', ( #208 ) );
#144 = EDGE_LOOP( '', ( #209, #210, #211, #212 ) );
#145 = AXIS2_PLACEMENT_3D( '', #213, #214, #215 );
#146 = SURFACE_SIDE_STYLE( '', ( #216 ) );
#147 = EDGE_LOOP( '', ( #217 ) );
#148 = EDGE_LOOP( '', ( #218 ) );
#149 = AXIS2_PLACEMENT_3D( '', #219, #220, #221 );
#150 = SURFACE_SIDE_STYLE( '', ( #222 ) );
#151 = EDGE_LOOP( '', ( #223, #224, #225, #226 ) );
#152 = AXIS2_PLACEMENT_3D( '', #227, #228, #229 );
#153 = SURFACE_SIDE_STYLE( '', ( #230 ) );
#154 = EDGE_LOOP( '', ( #231 ) );
#155 = EDGE_LOOP( '', ( #232 ) );
#156 = AXIS2_PLACEMENT_3D( '', #233, #234, #235 );
#157 = SURFACE_SIDE_STYLE( '', ( #236 ) );
#158 = EDGE_LOOP( '', ( #237 ) );
#159 = EDGE_LOOP( '', ( #238 ) );
#160 = AXIS2_PLACEMENT_3D( '', #239, #240, #241 );
#162 = SURFACE_STYLE_FILL_AREA( #242 );
#163 = ORIENTED_EDGE( '', *, *, #243, .T. );
#164 = ORIENTED_EDGE( '', *, *, #244, .F. );
#165 = ORIENTED_EDGE( '', *, *, #245, .F. );
#166 = ORIENTED_EDGE( '', *, *, #246, .T. );
#167 = CARTESIAN_POINT( '', ( 398.000000000000, 42.0000000000000, 96.0000000000000 ) );
#168 = DIRECTION( '', ( -1.56909661143631E-016, -1.00000000000000, 0.000000000000000 ) );
#169 = DIRECTION( '', ( 1.00000000000000, -1.56909661143631E-016, 0.000000000000000 ) );
#170 = SURFACE_STYLE_FILL_AREA( #247 );
#171 = ORIENTED_EDGE( '', *, *, #248, .T. );
#172 = ORIENTED_EDGE( '', *, *, #249, .F. );
#173 = ORIENTED_EDGE( '', *, *, #250, .F. );
#174 = ORIENTED_EDGE( '', *, *, #244, .T. );
#175 = CARTESIAN_POINT( '', ( -398.000000000000, 42.0000000000000, 96.0000000000000 ) );
#176 = DIRECTION( '', ( 1.00000000000000, 0.000000000000000, 0.000000000000000 ) );
#177 = DIRECTION( '', ( 0.000000000000000, 0.000000000000000, -1.00000000000000 ) );
#178 = SURFACE_STYLE_FILL_AREA( #251 );
#179 = ORIENTED_EDGE( '', *, *, #252, .T. );
#180 = ORIENTED_EDGE( '', *, *, #253, .T. );
#181 = ORIENTED_EDGE( '', *, *, #254, .T. );
#182 = ORIENTED_EDGE( '', *, *, #255, .T. );
#183 = ORIENTED_EDGE( '', *, *, #243, .F. );
#184 = ORIENTED_EDGE( '', *, *, #256, .F. );
#185 = ORIENTED_EDGE( '', *, *, #257, .F. );
#186 = ORIENTED_EDGE( '', *, *, #248, .F. );
#187 = CARTESIAN_POINT( '', ( -398.000000000000, 42.0000000000000, 0.000000000000000 ) );
#188 = DIRECTION( '', ( 0.000000000000000, 0.000000000000000, 1.00000000000000 ) );
#189 = DIRECTION( '', ( 1.00000000000000, 0.000000000000000, 0.000000000000000 ) );
#190 = SURFACE_STYLE_FILL_AREA( #258 );
#191 = ORIENTED_EDGE( '', *, *, #259, .T. );
#192 = ORIENTED_EDGE( '', *, *, #260, .T. );
#193 = ORIENTED_EDGE( '', *, *, #261, .T. );
#194 = ORIENTED_EDGE( '', *, *, #262, .T. );
#195 = ORIENTED_EDGE( '', *, *, #245, .T. );
#196 = ORIENTED_EDGE( '', *, *, #250, .T. );
#197 = ORIENTED_EDGE( '', *, *, #263, .T. );
#198 = ORIENTED_EDGE( '', *, *, #264, .T. );
#199 = CARTESIAN_POINT( '', ( -398.000000000000, 42.0000000000000, 96.0000000000000 ) );
#200 = DIRECTION( '', ( 0.000000000000000, 0.000000000000000, 1.00000000000000 ) );
#201 = DIRECTION( '', ( 1.00000000000000, 0.000000000000000, 0.000000000000000 ) );
#202 = SURFACE_STYLE_FILL_AREA( #265 );
#203 = ORIENTED_EDGE( '', *, *, #261, .F. );
#204 = ORIENTED_EDGE( '', *, *, #254, .F. );
#205 = CARTESIAN_POINT( '', ( 287.000000000000, 10.0000000000001, 96.0000000000000 ) );
#206 = DIRECTION( '', ( -0.000000000000000, -0.000000000000000, 1.00000000000000 ) );
#207 = DIRECTION( '', ( 0.000000000000000, -1.00000000000000, 0.000000000000000 ) );
#208 = SURFACE_STYLE_FILL_AREA( #266 );
#209 = ORIENTED_EDGE( '', *, *, #256, .T. );
#210 = ORIENTED_EDGE( '', *, *, #246, .F. );
#211 = ORIENTED_EDGE( '', *, *, #264, .F. );
#212 = ORIENTED_EDGE( '', *, *, #267, .T. );
#213 = CARTESIAN_POINT( '', ( 398.000000000000, -42.0000000000000, 96.0000000000000 ) );
#214 = DIRECTION( '', ( -1.00000000000000, 0.000000000000000, 0.000000000000000 ) );
#215 = DIRECTION( '', ( 0.000000000000000, 0.000000000000000, 1.00000000000000 ) );
#216 = SURFACE_STYLE_FILL_AREA( #268 );
#217 = ORIENTED_EDGE( '', *, *, #260, .F. );
#218 = ORIENTED_EDGE( '', *, *, #253, .F. );
#219 = CARTESIAN_POINT( '', ( 346.000000000000, 10.0000000000000, 96.0000000000000 ) );
#220 = DIRECTION( '', ( -0.000000000000000, -0.000000000000000, 1.00000000000000 ) );
#221 = DIRECTION( '', ( 0.000000000000000, -1.00000000000000, 0.000000000000000 ) );
#222 = SURFACE_STYLE_FILL_AREA( #269 );
#223 = ORIENTED_EDGE( '', *, *, #257, .T. );
#224 = ORIENTED_EDGE( '', *, *, #267, .F. );
#225 = ORIENTED_EDGE( '', *, *, #263, .F. );
#226 = ORIENTED_EDGE( '', *, *, #249, .T. );
#227 = CARTESIAN_POINT( '', ( -398.000000000000, -42.0000000000000, 96.0000000000000 ) );
#228 = DIRECTION( '', ( 6.10204237780787E-017, 1.00000000000000, 0.000000000000000 ) );
#229 = DIRECTION( '', ( -1.00000000000000, 6.10204237780787E-017, 0.000000000000000 ) );
#230 = SURFACE_STYLE_FILL_AREA( #270 );
#231 = ORIENTED_EDGE( '', *, *, #262, .F. );
#232 = ORIENTED_EDGE( '', *, *, #255, .F. );
#233 = CARTESIAN_POINT( '', ( -287.000000000000, 10.0000000000000, 96.0000000000000 ) );
#234 = DIRECTION( '', ( -0.000000000000000, -0.000000000000000, 1.00000000000000 ) );
#235 = DIRECTION( '', ( 0.000000000000000, -1.00000000000000, 0.000000000000000 ) );
#236 = SURFACE_STYLE_FILL_AREA( #271 );
#237 = ORIENTED_EDGE( '', *, *, #259, .F. );
#238 = ORIENTED_EDGE( '', *, *, #252, .F. );
#239 = CARTESIAN_POINT( '', ( -346.000000000000, 10.0000000000000, 96.0000000000000 ) );
#240 = DIRECTION( '', ( -0.000000000000000, -0.000000000000000, 1.00000000000000 ) );
#241 = DIRECTION( '', ( 0.000000000000000, -1.00000000000000, 0.000000000000000 ) );
#242 = FILL_AREA_STYLE( '', ( #272 ) );
#243 = EDGE_CURVE( '', #273, #274, #275, .T. );
#244 = EDGE_CURVE( '', #276, #274, #277, .T. );
#245 = EDGE_CURVE( '', #278, #276, #279, .T. );
#246 = EDGE_CURVE( '', #278, #273, #280, .T. );
#247 = FILL_AREA_STYLE( '', ( #281 ) );
#248 = EDGE_CURVE( '', #274, #282, #283, .T. );
#249 = EDGE_CURVE( '', #284, #282, #285, .T. );
#250 = EDGE_CURVE( '', #276, #284, #286, .T. );
#251 = FILL_AREA_STYLE( '', ( #287 ) );
#252 = EDGE_CURVE( '', #288, #288, #289, .T. );
#253 = EDGE_CURVE( '', #290, #290, #291, .T. );
#254 = EDGE_CURVE( '', #292, #292, #293, .T. );
#255 = EDGE_CURVE( '', #294, #294, #295, .T. );
#256 = EDGE_CURVE( '', #296, #273, #297, .T. );
#257 = EDGE_CURVE( '', #282, #296, #298, .T. );
#258 = FILL_AREA_STYLE( '', ( #299 ) );
#259 = EDGE_CURVE( '', #300, #300, #301, .T. );
#260 = EDGE_CURVE( '', #302, #302, #303, .T. );
#261 = EDGE_CURVE( '', #304, #304, #305, .T. );
#262 = EDGE_CURVE( '', #306, #306, #307, .T. );
#263 = EDGE_CURVE( '', #284, #308, #309, .T. );
#264 = EDGE_CURVE( '', #308, #278, #310, .T. );
#265 = FILL_AREA_STYLE( '', ( #311 ) );
#266 = FILL_AREA_STYLE( '', ( #312 ) );
#267 = EDGE_CURVE( '', #308, #296, #313, .T. );
#268 = FILL_AREA_STYLE( '', ( #314 ) );
#269 = FILL_AREA_STYLE( '', ( #315 ) );
#270 = FILL_AREA_STYLE( '', ( #316 ) );
#271 = FILL_AREA_STYLE( '', ( #317 ) );
#272 = FILL_AREA_STYLE_COLOUR( '', #318 );
#273 = VERTEX_POINT( '', #319 );
#274 = VERTEX_POINT( '', #320 );
#275 = LINE( '', #321, #322 );
#276 = VERTEX_POINT( '', #323 );
#277 = LINE( '', #324, #325 );
#278 = VERTEX_POINT( '', #326 );
#279 = LINE( '', #327, #328 );
#280 = LINE( '', #329, #330 );
#281 = FILL_AREA_STYLE_COLOUR( '', #331 );
#282 = VERTEX_POINT( '', #332 );
#283 = LINE( '', #333, #334 );
#284 = VERTEX_POINT( '', #335 );
#285 = LINE( '', #336, #337 );
#286 = LINE( '', #338, #339 );
#287 = FILL_AREA_STYLE_COLOUR( '', #340 );
#288 = VERTEX_POINT( '', #341 );
#289 = CIRCLE( '', #342, 27.0000000000000 );
#290 = VERTEX_POINT( '', #343 );
#291 = CIRCLE( '', #344, 27.0000000000000 );
#292 = VERTEX_POINT( '', #345 );
#293 = CIRCLE( '', #346, 11.0000000000000 );
#294 = VERTEX_POINT( '', #347 );
#295 = CIRCLE( '', #348, 11.0000000000000 );
#296 = VERTEX_POINT( '', #349 );
#297 = LINE( '', #350, #351 );
#298 = LINE( '', #352, #353 );
#299 = FILL_AREA_STYLE_COLOUR( '', #354 );
#300 = VERTEX_POINT( '', #355 );
#301 = CIRCLE( '', #356, 27.0000000000000 );
#302 = VERTEX_POINT( '', #357 );
#303 = CIRCLE( '', #358, 27.0000000000000 );
#304 = VERTEX_POINT( '', #359 );
#305 = CIRCLE( '', #360, 11.0000000000000 );
#306 = VERTEX_POINT( '', #361 );
#307 = CIRCLE( '', #362, 11.0000000000000 );
#308 = VERTEX_POINT( '', #363 );
#309 = LINE( '', #364, #365 );
#310 = LINE( '', #366, #367 );
#311 = FILL_AREA_STYLE_COLOUR( '', #368 );
#312 = FILL_AREA_STYLE_COLOUR( '', #369 );
#313 = LINE( '', #370, #371 );
#314 = FILL_AREA_STYLE_COLOUR( '', #372 );
#315 = FILL_AREA_STYLE_COLOUR( '', #373 );
#316 = FILL_AREA_STYLE_COLOUR( '', #374 );
#317 = FILL_AREA_STYLE_COLOUR( '', #375 );
#318 = COLOUR_RGB( '', 0.752941191196442, 0.752941191196442, 0.752941191196442 );
#319 = CARTESIAN_POINT( '', ( 398.000000000000, 42.0000000000000, 0.000000000000000 ) );
#320 = CARTESIAN_POINT( '', ( -398.000000000000, 42.0000000000000, 0.000000000000000 ) );
#321 = CARTESIAN_POINT( '', ( 398.000000000000, 42.0000000000000, 0.000000000000000 ) );
#322 = VECTOR( '', #376, 1000.00000000000 );
#323 = CARTESIAN_POINT( '', ( -398.000000000000, 42.0000000000000, 96.0000000000000 ) );
#324 = CARTESIAN_POINT( '', ( -398.000000000000, 42.0000000000000, 96.0000000000000 ) );
#325 = VECTOR( '', #377, 1000.00000000000 );
#326 = CARTESIAN_POINT( '', ( 398.000000000000, 42.0000000000000, 96.0000000000000 ) );
#327 = CARTESIAN_POINT( '', ( 398.000000000000, 42.0000000000000, 96.0000000000000 ) );
#328 = VECTOR( '', #378, 1000.00000000000 );
#329 = CARTESIAN_POINT( '', ( 398.000000000000, 42.0000000000000, 96.0000000000000 ) );
#330 = VECTOR( '', #379, 1000.00000000000 );
#331 = COLOUR_RGB( '', 0.752941191196442, 0.752941191196442, 0.752941191196442 );
#332 = CARTESIAN_POINT( '', ( -398.000000000000, -42.0000000000000, 0.000000000000000 ) );
#333 = CARTESIAN_POINT( '', ( -398.000000000000, 42.0000000000000, 0.000000000000000 ) );
#334 = VECTOR( '', #380, 1000.00000000000 );
#335 = CARTESIAN_POINT( '', ( -398.000000000000, -42.0000000000000, 96.0000000000000 ) );
#336 = CARTESIAN_POINT( '', ( -398.000000000000, -42.0000000000000, 96.0000000000000 ) );
#337 = VECTOR( '', #381, 1000.00000000000 );
#338 = CARTESIAN_POINT( '', ( -398.000000000000, 42.0000000000000, 96.0000000000000 ) );
#339 = VECTOR( '', #382, 1000.00000000000 );
#340 = COLOUR_RGB( '', 0.752941191196442, 0.752941191196442, 0.752941191196442 );
#341 = CARTESIAN_POINT( '', ( -319.000000000000, 10.0000000000000, 0.000000000000000 ) );
#342 = AXIS2_PLACEMENT_3D( '', #383, #384, #385 );
#343 = CARTESIAN_POINT( '', ( 373.000000000000, 10.0000000000000, 0.000000000000000 ) );
#344 = AXIS2_PLACEMENT_3D( '', #386, #387, #388 );
#345 = CARTESIAN_POINT( '', ( 298.000000000000, 10.0000000000001, 0.000000000000000 ) );
#346 = AXIS2_PLACEMENT_3D( '', #389, #390, #391 );
#347 = CARTESIAN_POINT( '', ( -276.000000000000, 10.0000000000000, 0.000000000000000 ) );
#348 = AXIS2_PLACEMENT_3D( '', #392, #393, #394 );
#349 = CARTESIAN_POINT( '', ( 398.000000000000, -42.0000000000000, 0.000000000000000 ) );
#350 = CARTESIAN_POINT( '', ( 398.000000000000, -42.0000000000000, 0.000000000000000 ) );
#351 = VECTOR( '', #395, 1000.00000000000 );
#352 = CARTESIAN_POINT( '', ( -398.000000000000, -42.0000000000000, 0.000000000000000 ) );
#353 = VECTOR( '', #396, 1000.00000000000 );
#354 = COLOUR_RGB( '', 0.752941191196442, 0.752941191196442, 0.752941191196442 );
#355 = CARTESIAN_POINT( '', ( -346.000000000000, -17.0000000000000, 96.0000000000000 ) );
#356 = AXIS2_PLACEMENT_3D( '', #397, #398, #399 );
#357 = CARTESIAN_POINT( '', ( 346.000000000000, -17.0000000000000, 96.0000000000000 ) );
#358 = AXIS2_PLACEMENT_3D( '', #400, #401, #402 );
#359 = CARTESIAN_POINT( '', ( 287.000000000000, -0.999999999999859, 96.0000000000000 ) );
#360 = AXIS2_PLACEMENT_3D( '', #403, #404, #405 );
#361 = CARTESIAN_POINT( '', ( -287.000000000000, -0.999999999999999, 96.0000000000000 ) );
#362 = AXIS2_PLACEMENT_3D( '', #406, #407, #408 );
#363 = CARTESIAN_POINT( '', ( 398.000000000000, -42.0000000000000, 96.0000000000000 ) );
#364 = CARTESIAN_POINT( '', ( -398.000000000000, -42.0000000000000, 96.0000000000000 ) );
#365 = VECTOR( '', #409, 1000.00000000000 );
#366 = CARTESIAN_POINT( '', ( 398.000000000000, -42.0000000000000, 96.0000000000000 ) );
#367 = VECTOR( '', #410, 1000.00000000000 );
#368 = COLOUR_RGB( '', 0.752941191196442, 0.752941191196442, 0.752941191196442 );
#369 = COLOUR_RGB( '', 0.752941191196442, 0.752941191196442, 0.752941191196442 );
#370 = CARTESIAN_POINT( '', ( 398.000000000000, -42.0000000000000, 96.0000000000000 ) );
#371 = VECTOR( '', #411, 1000.00000000000 );
#372 = COLOUR_RGB( '', 0.752941191196442, 0.752941191196442, 0.752941191196442 );
#373 = COLOUR_RGB( '', 0.752941191196442, 0.752941191196442, 0.752941191196442 );
#374 = COLOUR_RGB( '', 0.752941191196442, 0.752941191196442, 0.752941191196442 );
#375 = COLOUR_RGB( '', 0.752941191196442, 0.752941191196442, 0.752941191196442 );
#376 = DIRECTION( '', ( -1.00000000000000, 1.56909661143631E-016, 0.000000000000000 ) );
#377 = DIRECTION( '', ( 0.000000000000000, 0.000000000000000, -1.00000000000000 ) );
#378 = DIRECTION( '', ( -1.00000000000000, 1.56909661143631E-016, 0.000000000000000 ) );
#379 = DIRECTION( '', ( 0.000000000000000, 0.000000000000000, -1.00000000000000 ) );
#380 = DIRECTION( '', ( 0.000000000000000, -1.00000000000000, 0.000000000000000 ) );
#381 = DIRECTION( '', ( 0.000000000000000, 0.000000000000000, -1.00000000000000 ) );
#382 = DIRECTION( '', ( 0.000000000000000, -1.00000000000000, 0.000000000000000 ) );
#383 = CARTESIAN_POINT( '', ( -346.000000000000, 10.0000000000000, 0.000000000000000 ) );
#384 = DIRECTION( '', ( 0.000000000000000, 0.000000000000000, 1.00000000000000 ) );
#385 = DIRECTION( '', ( 1.00000000000000, 0.000000000000000, 0.000000000000000 ) );
#386 = CARTESIAN_POINT( '', ( 346.000000000000, 10.0000000000000, 0.000000000000000 ) );
#387 = DIRECTION( '', ( 0.000000000000000, 0.000000000000000, 1.00000000000000 ) );
#388 = DIRECTION( '', ( 1.00000000000000, 0.000000000000000, 0.000000000000000 ) );
#389 = CARTESIAN_POINT( '', ( 287.000000000000, 10.0000000000001, 0.000000000000000 ) );
#390 = DIRECTION( '', ( 0.000000000000000, 0.000000000000000, 1.00000000000000 ) );
#391 = DIRECTION( '', ( 1.00000000000000, 0.000000000000000, 0.000000000000000 ) );
#392 = CARTESIAN_POINT( '', ( -287.000000000000, 10.0000000000000, 0.000000000000000 ) );
#393 = DIRECTION( '', ( 0.000000000000000, 0.000000000000000, 1.00000000000000 ) );
#394 = DIRECTION( '', ( 1.00000000000000, 0.000000000000000, 0.000000000000000 ) );
#395 = DIRECTION( '', ( 0.000000000000000, 1.00000000000000, 0.000000000000000 ) );
#396 = DIRECTION( '', ( 1.00000000000000, -6.10204237780787E-017, 0.000000000000000 ) );
#397 = CARTESIAN_POINT( '', ( -346.000000000000, 10.0000000000000, 96.0000000000000 ) );
#398 = DIRECTION( '', ( 0.000000000000000, 0.000000000000000, -1.00000000000000 ) );
#399 = DIRECTION( '', ( 0.000000000000000, -1.00000000000000, 0.000000000000000 ) );
#400 = CARTESIAN_POINT( '', ( 346.000000000000, 10.0000000000000, 96.0000000000000 ) );
#401 = DIRECTION( '', ( 0.000000000000000, 0.000000000000000, -1.00000000000000 ) );
#402 = DIRECTION( '', ( 0.000000000000000, -1.00000000000000, 0.000000000000000 ) );
#403 = CARTESIAN_POINT( '', ( 287.000000000000, 10.0000000000001, 96.0000000000000 ) );
#404 = DIRECTION( '', ( 0.000000000000000, 0.000000000000000, -1.00000000000000 ) );
#405 = DIRECTION( '', ( 0.000000000000000, -1.00000000000000, 0.000000000000000 ) );
#406 = CARTESIAN_POINT( '', ( -287.000000000000, 10.0000000000000, 96.0000000000000 ) );
#407 = DIRECTION( '', ( 0.000000000000000, 0.000000000000000, -1.00000000000000 ) );
#408 = DIRECTION( '', ( 0.000000000000000, -1.00000000000000, 0.000000000000000 ) );
#409 = DIRECTION( '', ( 1.00000000000000, -6.10204237780787E-017, 0.000000000000000 ) );
#410 = DIRECTION( '', ( 0.000000000000000, 1.00000000000000, 0.000000000000000 ) );
#411 = DIRECTION( '', ( 0.000000000000000, 0.000000000000000, -1.00000000000000 ) );
ENDSEC;
END-ISO-10303-21;
