ISO-10303-21;
HEADER;
FILE_DESCRIPTION( ( 'Unknown' ), '1' );
FILE_NAME( 'M:/Piezas_3D/Placas_Par/G2/OS_G2_596x596x116_.stp', 'Unknown', ( 'Unknown' ), ( 'Unknown' ), 'PSStep 16.0.42', 'Unknown', '  ' );
FILE_SCHEMA( ( 'AUTOMOTIVE_DESIGN { 1 0 10303 214 1 1 1 1 }' ) );
ENDSEC;
DATA;
#1 = MECHANICAL_DESIGN_GEOMETRIC_PRESENTATION_REPRESENTATION( ' ', ( #10, #11, #12, #13, #14, #15, #16, #17, #18, #19 ), #6 );
#2 = PRODUCT_DEFINITION_CONTEXT( '', #20, 'design' );
#3 = APPLICATION_PROTOCOL_DEFINITION( 'international standard', 'automotive_design', 2001, #20 );
#4 = PRODUCT_CATEGORY_RELATIONSHIP( 'NONE', 'NONE', #21, #22 );
#5 = SHAPE_DEFINITION_REPRESENTATION( #23, #24 );
#6 =  ( GEOMETRIC_REPRESENTATION_CONTEXT( 3 )GLOBAL_UNCERTAINTY_ASSIGNED_CONTEXT( ( #27 ) )GLOBAL_UNIT_ASSIGNED_CONTEXT( ( #29, #30, #31 ) )REPRESENTATION_CONTEXT( 'NONE', 'WORKSPACE' ) );
#10 = STYLED_ITEM( '', ( #33 ), #34 );
#11 = STYLED_ITEM( '', ( #35 ), #36 );
#12 = STYLED_ITEM( '', ( #37 ), #38 );
#13 = STYLED_ITEM( '', ( #39 ), #40 );
#14 = STYLED_ITEM( '', ( #41 ), #42 );
#15 = STYLED_ITEM( '', ( #43 ), #44 );
#16 = STYLED_ITEM( '', ( #45 ), #46 );
#17 = STYLED_ITEM( '', ( #47 ), #48 );
#18 = STYLED_ITEM( '', ( #49 ), #50 );
#19 = STYLED_ITEM( '', ( #51 ), #52 );
#20 = APPLICATION_CONTEXT( 'core data for automotive mechanical design processes' );
#21 = PRODUCT_CATEGORY( 'part', 'NONE' );
#22 = PRODUCT_RELATED_PRODUCT_CATEGORY( 'detail', ' ', ( #53 ) );
#23 = PRODUCT_DEFINITION_SHAPE( 'NONE', 'NONE', #54 );
#24 = ADVANCED_BREP_SHAPE_REPRESENTATION( '1', ( #55, #56 ), #6 );
#27 = UNCERTAINTY_MEASURE_WITH_UNIT( LENGTH_MEASURE( 0.00100000000000000 ), #29, '', '' );
#29 =  ( CONVERSION_BASED_UNIT( 'MILLIMETRE', #59 )LENGTH_UNIT(  )NAMED_UNIT( #62 ) );
#30 =  ( NAMED_UNIT( #64 )PLANE_ANGLE_UNIT(  )SI_UNIT( $, .RADIAN. ) );
#31 =  ( NAMED_UNIT( #64 )SI_UNIT( $, .STERADIAN. )SOLID_ANGLE_UNIT(  ) );
#33 = PRESENTATION_STYLE_ASSIGNMENT( ( #70 ) );
#34 = ADVANCED_FACE( '', ( #71, #72, #73, #74, #75 ), #76, .F. );
#35 = PRESENTATION_STYLE_ASSIGNMENT( ( #77 ) );
#36 = ADVANCED_FACE( '', ( #78, #79 ), #80, .F. );
#37 = PRESENTATION_STYLE_ASSIGNMENT( ( #81 ) );
#38 = ADVANCED_FACE( '', ( #82, #83, #84, #85, #86 ), #87, .T. );
#39 = PRESENTATION_STYLE_ASSIGNMENT( ( #88 ) );
#40 = ADVANCED_FACE( '', ( #89 ), #90, .F. );
#41 = PRESENTATION_STYLE_ASSIGNMENT( ( #91 ) );
#42 = ADVANCED_FACE( '', ( #92 ), #93, .F. );
#43 = PRESENTATION_STYLE_ASSIGNMENT( ( #94 ) );
#44 = ADVANCED_FACE( '', ( #95 ), #96, .F. );
#45 = PRESENTATION_STYLE_ASSIGNMENT( ( #97 ) );
#46 = ADVANCED_FACE( '', ( #98 ), #99, .F. );
#47 = PRESENTATION_STYLE_ASSIGNMENT( ( #100 ) );
#48 = ADVANCED_FACE( '', ( #101, #102 ), #103, .F. );
#49 = PRESENTATION_STYLE_ASSIGNMENT( ( #104 ) );
#50 = ADVANCED_FACE( '', ( #105, #106 ), #107, .F. );
#51 = PRESENTATION_STYLE_ASSIGNMENT( ( #108 ) );
#52 = ADVANCED_FACE( '', ( #109, #110 ), #111, .F. );
#53 = PRODUCT( '1', '1', 'PART-1-DESC', ( #112 ) );
#54 = PRODUCT_DEFINITION( 'NONE', 'NONE', #113, #2 );
#55 = MANIFOLD_SOLID_BREP( '1', #114 );
#56 = AXIS2_PLACEMENT_3D( '', #115, #116, #117 );
#59 = LENGTH_MEASURE_WITH_UNIT( LENGTH_MEASURE( 1.00000000000000 ), #118 );
#62 = DIMENSIONAL_EXPONENTS( 1.00000000000000, 0.000000000000000, 0.000000000000000, 0.000000000000000, 0.000000000000000, 0.000000000000000, 0.000000000000000 );
#64 = DIMENSIONAL_EXPONENTS( 0.000000000000000, 0.000000000000000, 0.000000000000000, 0.000000000000000, 0.000000000000000, 0.000000000000000, 0.000000000000000 );
#70 = SURFACE_STYLE_USAGE( .BOTH., #119 );
#71 = FACE_BOUND( '', #120, .T. );
#72 = FACE_BOUND( '', #121, .T. );
#73 = FACE_BOUND( '', #122, .T. );
#74 = FACE_BOUND( '', #123, .T. );
#75 = FACE_OUTER_BOUND( '', #124, .T. );
#76 = PLANE( '', #125 );
#77 = SURFACE_STYLE_USAGE( .BOTH., #126 );
#78 = FACE_OUTER_BOUND( '', #127, .T. );
#79 = FACE_OUTER_BOUND( '', #128, .T. );
#80 = CYLINDRICAL_SURFACE( '', #129, 21.0000000000000 );
#81 = SURFACE_STYLE_USAGE( .BOTH., #130 );
#82 = FACE_BOUND( '', #131, .T. );
#83 = FACE_BOUND( '', #132, .T. );
#84 = FACE_BOUND( '', #133, .T. );
#85 = FACE_BOUND( '', #134, .T. );
#86 = FACE_OUTER_BOUND( '', #135, .T. );
#87 = PLANE( '', #136 );
#88 = SURFACE_STYLE_USAGE( .BOTH., #137 );
#89 = FACE_OUTER_BOUND( '', #138, .T. );
#90 = PLANE( '', #139 );
#91 = SURFACE_STYLE_USAGE( .BOTH., #140 );
#92 = FACE_OUTER_BOUND( '', #141, .T. );
#93 = PLANE( '', #142 );
#94 = SURFACE_STYLE_USAGE( .BOTH., #143 );
#95 = FACE_OUTER_BOUND( '', #144, .T. );
#96 = PLANE( '', #145 );
#97 = SURFACE_STYLE_USAGE( .BOTH., #146 );
#98 = FACE_OUTER_BOUND( '', #147, .T. );
#99 = PLANE( '', #148 );
#100 = SURFACE_STYLE_USAGE( .BOTH., #149 );
#101 = FACE_OUTER_BOUND( '', #150, .T. );
#102 = FACE_OUTER_BOUND( '', #151, .T. );
#103 = CYLINDRICAL_SURFACE( '', #152, 9.00000000000000 );
#104 = SURFACE_STYLE_USAGE( .BOTH., #153 );
#105 = FACE_OUTER_BOUND( '', #154, .T. );
#106 = FACE_OUTER_BOUND( '', #155, .T. );
#107 = CYLINDRICAL_SURFACE( '', #156, 9.00000000000000 );
#108 = SURFACE_STYLE_USAGE( .BOTH., #157 );
#109 = FACE_OUTER_BOUND( '', #158, .T. );
#110 = FACE_OUTER_BOUND( '', #159, .T. );
#111 = CYLINDRICAL_SURFACE( '', #160, 21.0000000000000 );
#112 = PRODUCT_CONTEXT( '', #20, 'mechanical' );
#113 = PRODUCT_DEFINITION_FORMATION_WITH_SPECIFIED_SOURCE( ' ', 'NONE', #53, .NOT_KNOWN. );
#114 = CLOSED_SHELL( '', ( #50, #34, #46, #38, #44, #42, #40, #48, #52, #36 ) );
#115 = CARTESIAN_POINT( '', ( 0.000000000000000, 0.000000000000000, 0.000000000000000 ) );
#116 = DIRECTION( '', ( 0.000000000000000, 0.000000000000000, 1.00000000000000 ) );
#117 = DIRECTION( '', ( 1.00000000000000, 0.000000000000000, 0.000000000000000 ) );
#118 =  ( LENGTH_UNIT(  )NAMED_UNIT( #62 )SI_UNIT( .MILLI., .METRE. ) );
#119 = SURFACE_SIDE_STYLE( '', ( #162 ) );
#120 = EDGE_LOOP( '', ( #163 ) );
#121 = EDGE_LOOP( '', ( #164 ) );
#122 = EDGE_LOOP( '', ( #165 ) );
#123 = EDGE_LOOP( '', ( #166 ) );
#124 = EDGE_LOOP( '', ( #167, #168, #169, #170 ) );
#125 = AXIS2_PLACEMENT_3D( '', #171, #172, #173 );
#126 = SURFACE_SIDE_STYLE( '', ( #174 ) );
#127 = EDGE_LOOP( '', ( #175 ) );
#128 = EDGE_LOOP( '', ( #176 ) );
#129 = AXIS2_PLACEMENT_3D( '', #177, #178, #179 );
#130 = SURFACE_SIDE_STYLE( '', ( #180 ) );
#131 = EDGE_LOOP( '', ( #181 ) );
#132 = EDGE_LOOP( '', ( #182 ) );
#133 = EDGE_LOOP( '', ( #183 ) );
#134 = EDGE_LOOP( '', ( #184 ) );
#135 = EDGE_LOOP( '', ( #185, #186, #187, #188 ) );
#136 = AXIS2_PLACEMENT_3D( '', #189, #190, #191 );
#137 = SURFACE_SIDE_STYLE( '', ( #192 ) );
#138 = EDGE_LOOP( '', ( #193, #194, #195, #196 ) );
#139 = AXIS2_PLACEMENT_3D( '', #197, #198, #199 );
#140 = SURFACE_SIDE_STYLE( '', ( #200 ) );
#141 = EDGE_LOOP( '', ( #201, #202, #203, #204 ) );
#142 = AXIS2_PLACEMENT_3D( '', #205, #206, #207 );
#143 = SURFACE_SIDE_STYLE( '', ( #208 ) );
#144 = EDGE_LOOP( '', ( #209, #210, #211, #212 ) );
#145 = AXIS2_PLACEMENT_3D( '', #213, #214, #215 );
#146 = SURFACE_SIDE_STYLE( '', ( #216 ) );
#147 = EDGE_LOOP( '', ( #217, #218, #219, #220 ) );
#148 = AXIS2_PLACEMENT_3D( '', #221, #222, #223 );
#149 = SURFACE_SIDE_STYLE( '', ( #224 ) );
#150 = EDGE_LOOP( '', ( #225 ) );
#151 = EDGE_LOOP( '', ( #226 ) );
#152 = AXIS2_PLACEMENT_3D( '', #227, #228, #229 );
#153 = SURFACE_SIDE_STYLE( '', ( #230 ) );
#154 = EDGE_LOOP( '', ( #231 ) );
#155 = EDGE_LOOP( '', ( #232 ) );
#156 = AXIS2_PLACEMENT_3D( '', #233, #234, #235 );
#157 = SURFACE_SIDE_STYLE( '', ( #236 ) );
#158 = EDGE_LOOP( '', ( #237 ) );
#159 = EDGE_LOOP( '', ( #238 ) );
#160 = AXIS2_PLACEMENT_3D( '', #239, #240, #241 );
#162 = SURFACE_STYLE_FILL_AREA( #242 );
#163 = ORIENTED_EDGE( '', *, *, #243, .T. );
#164 = ORIENTED_EDGE( '', *, *, #244, .T. );
#165 = ORIENTED_EDGE( '', *, *, #245, .T. );
#166 = ORIENTED_EDGE( '', *, *, #246, .T. );
#167 = ORIENTED_EDGE( '', *, *, #247, .F. );
#168 = ORIENTED_EDGE( '', *, *, #248, .F. );
#169 = ORIENTED_EDGE( '', *, *, #249, .F. );
#170 = ORIENTED_EDGE( '', *, *, #250, .F. );
#171 = CARTESIAN_POINT( '', ( -298.000000000000, 31.0000000000000, 0.000000000000000 ) );
#172 = DIRECTION( '', ( 0.000000000000000, 0.000000000000000, 1.00000000000000 ) );
#173 = DIRECTION( '', ( 1.00000000000000, 0.000000000000000, 0.000000000000000 ) );
#174 = SURFACE_STYLE_FILL_AREA( #251 );
#175 = ORIENTED_EDGE( '', *, *, #252, .F. );
#176 = ORIENTED_EDGE( '', *, *, #243, .F. );
#177 = CARTESIAN_POINT( '', ( -262.000000000000, 5.00000000000011, 116.000000000000 ) );
#178 = DIRECTION( '', ( -0.000000000000000, -0.000000000000000, 1.00000000000000 ) );
#179 = DIRECTION( '', ( 0.000000000000000, -1.00000000000000, 0.000000000000000 ) );
#180 = SURFACE_STYLE_FILL_AREA( #253 );
#181 = ORIENTED_EDGE( '', *, *, #252, .T. );
#182 = ORIENTED_EDGE( '', *, *, #254, .T. );
#183 = ORIENTED_EDGE( '', *, *, #255, .T. );
#184 = ORIENTED_EDGE( '', *, *, #256, .T. );
#185 = ORIENTED_EDGE( '', *, *, #257, .T. );
#186 = ORIENTED_EDGE( '', *, *, #258, .T. );
#187 = ORIENTED_EDGE( '', *, *, #259, .T. );
#188 = ORIENTED_EDGE( '', *, *, #260, .T. );
#189 = CARTESIAN_POINT( '', ( -298.000000000000, 31.0000000000000, 116.000000000000 ) );
#190 = DIRECTION( '', ( 0.000000000000000, 0.000000000000000, 1.00000000000000 ) );
#191 = DIRECTION( '', ( 1.00000000000000, 0.000000000000000, 0.000000000000000 ) );
#192 = SURFACE_STYLE_FILL_AREA( #261 );
#193 = ORIENTED_EDGE( '', *, *, #250, .T. );
#194 = ORIENTED_EDGE( '', *, *, #262, .F. );
#195 = ORIENTED_EDGE( '', *, *, #258, .F. );
#196 = ORIENTED_EDGE( '', *, *, #263, .T. );
#197 = CARTESIAN_POINT( '', ( -298.000000000000, 31.0000000000000, 116.000000000000 ) );
#198 = DIRECTION( '', ( 1.00000000000000, 0.000000000000000, 0.000000000000000 ) );
#199 = DIRECTION( '', ( 0.000000000000000, 0.000000000000000, -1.00000000000000 ) );
#200 = SURFACE_STYLE_FILL_AREA( #264 );
#201 = ORIENTED_EDGE( '', *, *, #247, .T. );
#202 = ORIENTED_EDGE( '', *, *, #263, .F. );
#203 = ORIENTED_EDGE( '', *, *, #257, .F. );
#204 = ORIENTED_EDGE( '', *, *, #265, .T. );
#205 = CARTESIAN_POINT( '', ( 298.000000000000, 31.0000000000000, 116.000000000000 ) );
#206 = DIRECTION( '', ( -2.03742690131504E-016, -1.00000000000000, 0.000000000000000 ) );
#207 = DIRECTION( '', ( 1.00000000000000, -2.03742690131504E-016, 0.000000000000000 ) );
#208 = SURFACE_STYLE_FILL_AREA( #266 );
#209 = ORIENTED_EDGE( '', *, *, #249, .T. );
#210 = ORIENTED_EDGE( '', *, *, #267, .F. );
#211 = ORIENTED_EDGE( '', *, *, #259, .F. );
#212 = ORIENTED_EDGE( '', *, *, #262, .T. );
#213 = CARTESIAN_POINT( '', ( -298.000000000000, -31.0000000000000, 116.000000000000 ) );
#214 = DIRECTION( '', ( 6.98546366165157E-017, 1.00000000000000, 0.000000000000000 ) );
#215 = DIRECTION( '', ( -1.00000000000000, 6.98546366165157E-017, 0.000000000000000 ) );
#216 = SURFACE_STYLE_FILL_AREA( #268 );
#217 = ORIENTED_EDGE( '', *, *, #248, .T. );
#218 = ORIENTED_EDGE( '', *, *, #265, .F. );
#219 = ORIENTED_EDGE( '', *, *, #260, .F. );
#220 = ORIENTED_EDGE( '', *, *, #267, .T. );
#221 = CARTESIAN_POINT( '', ( 298.000000000000, -31.0000000000000, 116.000000000000 ) );
#222 = DIRECTION( '', ( -1.00000000000000, 0.000000000000000, 0.000000000000000 ) );
#223 = DIRECTION( '', ( 0.000000000000000, 0.000000000000000, 1.00000000000000 ) );
#224 = SURFACE_STYLE_FILL_AREA( #269 );
#225 = ORIENTED_EDGE( '', *, *, #255, .F. );
#226 = ORIENTED_EDGE( '', *, *, #245, .F. );
#227 = CARTESIAN_POINT( '', ( 215.000000000000, 5.00000000000014, 116.000000000000 ) );
#228 = DIRECTION( '', ( -0.000000000000000, -0.000000000000000, 1.00000000000000 ) );
#229 = DIRECTION( '', ( 0.000000000000000, -1.00000000000000, 0.000000000000000 ) );
#230 = SURFACE_STYLE_FILL_AREA( #270 );
#231 = ORIENTED_EDGE( '', *, *, #256, .F. );
#232 = ORIENTED_EDGE( '', *, *, #246, .F. );
#233 = CARTESIAN_POINT( '', ( -215.000000000000, 5.00000000000009, 116.000000000000 ) );
#234 = DIRECTION( '', ( -0.000000000000000, -0.000000000000000, 1.00000000000000 ) );
#235 = DIRECTION( '', ( 0.000000000000000, -1.00000000000000, 0.000000000000000 ) );
#236 = SURFACE_STYLE_FILL_AREA( #271 );
#237 = ORIENTED_EDGE( '', *, *, #254, .F. );
#238 = ORIENTED_EDGE( '', *, *, #244, .F. );
#239 = CARTESIAN_POINT( '', ( 262.000000000000, 5.00000000000011, 116.000000000000 ) );
#240 = DIRECTION( '', ( -0.000000000000000, -0.000000000000000, 1.00000000000000 ) );
#241 = DIRECTION( '', ( 0.000000000000000, -1.00000000000000, 0.000000000000000 ) );
#242 = FILL_AREA_STYLE( '', ( #272 ) );
#243 = EDGE_CURVE( '', #273, #273, #274, .T. );
#244 = EDGE_CURVE( '', #275, #275, #276, .T. );
#245 = EDGE_CURVE( '', #277, #277, #278, .T. );
#246 = EDGE_CURVE( '', #279, #279, #280, .T. );
#247 = EDGE_CURVE( '', #281, #282, #283, .T. );
#248 = EDGE_CURVE( '', #284, #281, #285, .T. );
#249 = EDGE_CURVE( '', #286, #284, #287, .T. );
#250 = EDGE_CURVE( '', #282, #286, #288, .T. );
#251 = FILL_AREA_STYLE( '', ( #289 ) );
#252 = EDGE_CURVE( '', #290, #290, #291, .T. );
#253 = FILL_AREA_STYLE( '', ( #292 ) );
#254 = EDGE_CURVE( '', #293, #293, #294, .T. );
#255 = EDGE_CURVE( '', #295, #295, #296, .T. );
#256 = EDGE_CURVE( '', #297, #297, #298, .T. );
#257 = EDGE_CURVE( '', #299, #300, #301, .T. );
#258 = EDGE_CURVE( '', #300, #302, #303, .T. );
#259 = EDGE_CURVE( '', #302, #304, #305, .T. );
#260 = EDGE_CURVE( '', #304, #299, #306, .T. );
#261 = FILL_AREA_STYLE( '', ( #307 ) );
#262 = EDGE_CURVE( '', #302, #286, #308, .T. );
#263 = EDGE_CURVE( '', #300, #282, #309, .T. );
#264 = FILL_AREA_STYLE( '', ( #310 ) );
#265 = EDGE_CURVE( '', #299, #281, #311, .T. );
#266 = FILL_AREA_STYLE( '', ( #312 ) );
#267 = EDGE_CURVE( '', #304, #284, #313, .T. );
#268 = FILL_AREA_STYLE( '', ( #314 ) );
#269 = FILL_AREA_STYLE( '', ( #315 ) );
#270 = FILL_AREA_STYLE( '', ( #316 ) );
#271 = FILL_AREA_STYLE( '', ( #317 ) );
#272 = FILL_AREA_STYLE_COLOUR( '', #318 );
#273 = VERTEX_POINT( '', #319 );
#274 = CIRCLE( '', #320, 21.0000000000000 );
#275 = VERTEX_POINT( '', #321 );
#276 = CIRCLE( '', #322, 21.0000000000000 );
#277 = VERTEX_POINT( '', #323 );
#278 = CIRCLE( '', #324, 9.00000000000000 );
#279 = VERTEX_POINT( '', #325 );
#280 = CIRCLE( '', #326, 9.00000000000000 );
#281 = VERTEX_POINT( '', #327 );
#282 = VERTEX_POINT( '', #328 );
#283 = LINE( '', #329, #330 );
#284 = VERTEX_POINT( '', #331 );
#285 = LINE( '', #332, #333 );
#286 = VERTEX_POINT( '', #334 );
#287 = LINE( '', #335, #336 );
#288 = LINE( '', #337, #338 );
#289 = FILL_AREA_STYLE_COLOUR( '', #339 );
#290 = VERTEX_POINT( '', #340 );
#291 = CIRCLE( '', #341, 21.0000000000000 );
#292 = FILL_AREA_STYLE_COLOUR( '', #342 );
#293 = VERTEX_POINT( '', #343 );
#294 = CIRCLE( '', #344, 21.0000000000000 );
#295 = VERTEX_POINT( '', #345 );
#296 = CIRCLE( '', #346, 9.00000000000000 );
#297 = VERTEX_POINT( '', #347 );
#298 = CIRCLE( '', #348, 9.00000000000000 );
#299 = VERTEX_POINT( '', #349 );
#300 = VERTEX_POINT( '', #350 );
#301 = LINE( '', #351, #352 );
#302 = VERTEX_POINT( '', #353 );
#303 = LINE( '', #354, #355 );
#304 = VERTEX_POINT( '', #356 );
#305 = LINE( '', #357, #358 );
#306 = LINE( '', #359, #360 );
#307 = FILL_AREA_STYLE_COLOUR( '', #361 );
#308 = LINE( '', #362, #363 );
#309 = LINE( '', #364, #365 );
#310 = FILL_AREA_STYLE_COLOUR( '', #366 );
#311 = LINE( '', #367, #368 );
#312 = FILL_AREA_STYLE_COLOUR( '', #369 );
#313 = LINE( '', #370, #371 );
#314 = FILL_AREA_STYLE_COLOUR( '', #372 );
#315 = FILL_AREA_STYLE_COLOUR( '', #373 );
#316 = FILL_AREA_STYLE_COLOUR( '', #374 );
#317 = FILL_AREA_STYLE_COLOUR( '', #375 );
#318 = COLOUR_RGB( '', 0.752941191196442, 0.752941191196442, 0.752941191196442 );
#319 = CARTESIAN_POINT( '', ( -241.000000000000, 5.00000000000011, 0.000000000000000 ) );
#320 = AXIS2_PLACEMENT_3D( '', #376, #377, #378 );
#321 = CARTESIAN_POINT( '', ( 283.000000000000, 5.00000000000011, 0.000000000000000 ) );
#322 = AXIS2_PLACEMENT_3D( '', #379, #380, #381 );
#323 = CARTESIAN_POINT( '', ( 224.000000000000, 5.00000000000014, 0.000000000000000 ) );
#324 = AXIS2_PLACEMENT_3D( '', #382, #383, #384 );
#325 = CARTESIAN_POINT( '', ( -206.000000000000, 5.00000000000009, 0.000000000000000 ) );
#326 = AXIS2_PLACEMENT_3D( '', #385, #386, #387 );
#327 = CARTESIAN_POINT( '', ( 298.000000000000, 31.0000000000000, 0.000000000000000 ) );
#328 = CARTESIAN_POINT( '', ( -298.000000000000, 31.0000000000000, 0.000000000000000 ) );
#329 = CARTESIAN_POINT( '', ( 298.000000000000, 31.0000000000000, 0.000000000000000 ) );
#330 = VECTOR( '', #388, 1000.00000000000 );
#331 = CARTESIAN_POINT( '', ( 298.000000000000, -31.0000000000000, 0.000000000000000 ) );
#332 = CARTESIAN_POINT( '', ( 298.000000000000, -31.0000000000000, 0.000000000000000 ) );
#333 = VECTOR( '', #389, 1000.00000000000 );
#334 = CARTESIAN_POINT( '', ( -298.000000000000, -31.0000000000000, 0.000000000000000 ) );
#335 = CARTESIAN_POINT( '', ( -298.000000000000, -31.0000000000000, 0.000000000000000 ) );
#336 = VECTOR( '', #390, 1000.00000000000 );
#337 = CARTESIAN_POINT( '', ( -298.000000000000, 31.0000000000000, 0.000000000000000 ) );
#338 = VECTOR( '', #391, 1000.00000000000 );
#339 = COLOUR_RGB( '', 0.752941191196442, 0.752941191196442, 0.752941191196442 );
#340 = CARTESIAN_POINT( '', ( -262.000000000000, -15.9999999999999, 116.000000000000 ) );
#341 = AXIS2_PLACEMENT_3D( '', #392, #393, #394 );
#342 = COLOUR_RGB( '', 0.752941191196442, 0.752941191196442, 0.752941191196442 );
#343 = CARTESIAN_POINT( '', ( 262.000000000000, -15.9999999999999, 116.000000000000 ) );
#344 = AXIS2_PLACEMENT_3D( '', #395, #396, #397 );
#345 = CARTESIAN_POINT( '', ( 215.000000000000, -3.99999999999986, 116.000000000000 ) );
#346 = AXIS2_PLACEMENT_3D( '', #398, #399, #400 );
#347 = CARTESIAN_POINT( '', ( -215.000000000000, -3.99999999999991, 116.000000000000 ) );
#348 = AXIS2_PLACEMENT_3D( '', #401, #402, #403 );
#349 = CARTESIAN_POINT( '', ( 298.000000000000, 31.0000000000000, 116.000000000000 ) );
#350 = CARTESIAN_POINT( '', ( -298.000000000000, 31.0000000000000, 116.000000000000 ) );
#351 = CARTESIAN_POINT( '', ( 298.000000000000, 31.0000000000000, 116.000000000000 ) );
#352 = VECTOR( '', #404, 1000.00000000000 );
#353 = CARTESIAN_POINT( '', ( -298.000000000000, -31.0000000000000, 116.000000000000 ) );
#354 = CARTESIAN_POINT( '', ( -298.000000000000, 31.0000000000000, 116.000000000000 ) );
#355 = VECTOR( '', #405, 1000.00000000000 );
#356 = CARTESIAN_POINT( '', ( 298.000000000000, -31.0000000000000, 116.000000000000 ) );
#357 = CARTESIAN_POINT( '', ( -298.000000000000, -31.0000000000000, 116.000000000000 ) );
#358 = VECTOR( '', #406, 1000.00000000000 );
#359 = CARTESIAN_POINT( '', ( 298.000000000000, -31.0000000000000, 116.000000000000 ) );
#360 = VECTOR( '', #407, 1000.00000000000 );
#361 = COLOUR_RGB( '', 0.752941191196442, 0.752941191196442, 0.752941191196442 );
#362 = CARTESIAN_POINT( '', ( -298.000000000000, -31.0000000000000, 116.000000000000 ) );
#363 = VECTOR( '', #408, 1000.00000000000 );
#364 = CARTESIAN_POINT( '', ( -298.000000000000, 31.0000000000000, 116.000000000000 ) );
#365 = VECTOR( '', #409, 1000.00000000000 );
#366 = COLOUR_RGB( '', 0.752941191196442, 0.752941191196442, 0.752941191196442 );
#367 = CARTESIAN_POINT( '', ( 298.000000000000, 31.0000000000000, 116.000000000000 ) );
#368 = VECTOR( '', #410, 1000.00000000000 );
#369 = COLOUR_RGB( '', 0.752941191196442, 0.752941191196442, 0.752941191196442 );
#370 = CARTESIAN_POINT( '', ( 298.000000000000, -31.0000000000000, 116.000000000000 ) );
#371 = VECTOR( '', #411, 1000.00000000000 );
#372 = COLOUR_RGB( '', 0.752941191196442, 0.752941191196442, 0.752941191196442 );
#373 = COLOUR_RGB( '', 0.752941191196442, 0.752941191196442, 0.752941191196442 );
#374 = COLOUR_RGB( '', 0.752941191196442, 0.752941191196442, 0.752941191196442 );
#375 = COLOUR_RGB( '', 0.752941191196442, 0.752941191196442, 0.752941191196442 );
#376 = CARTESIAN_POINT( '', ( -262.000000000000, 5.00000000000011, 0.000000000000000 ) );
#377 = DIRECTION( '', ( 0.000000000000000, 0.000000000000000, 1.00000000000000 ) );
#378 = DIRECTION( '', ( 1.00000000000000, 0.000000000000000, 0.000000000000000 ) );
#379 = CARTESIAN_POINT( '', ( 262.000000000000, 5.00000000000011, 0.000000000000000 ) );
#380 = DIRECTION( '', ( 0.000000000000000, 0.000000000000000, 1.00000000000000 ) );
#381 = DIRECTION( '', ( 1.00000000000000, 0.000000000000000, 0.000000000000000 ) );
#382 = CARTESIAN_POINT( '', ( 215.000000000000, 5.00000000000014, 0.000000000000000 ) );
#383 = DIRECTION( '', ( 0.000000000000000, 0.000000000000000, 1.00000000000000 ) );
#384 = DIRECTION( '', ( 1.00000000000000, 0.000000000000000, 0.000000000000000 ) );
#385 = CARTESIAN_POINT( '', ( -215.000000000000, 5.00000000000009, 0.000000000000000 ) );
#386 = DIRECTION( '', ( 0.000000000000000, 0.000000000000000, 1.00000000000000 ) );
#387 = DIRECTION( '', ( 1.00000000000000, 0.000000000000000, 0.000000000000000 ) );
#388 = DIRECTION( '', ( -1.00000000000000, 2.03742690131504E-016, 0.000000000000000 ) );
#389 = DIRECTION( '', ( 0.000000000000000, 1.00000000000000, 0.000000000000000 ) );
#390 = DIRECTION( '', ( 1.00000000000000, -6.98546366165157E-017, 0.000000000000000 ) );
#391 = DIRECTION( '', ( 0.000000000000000, -1.00000000000000, 0.000000000000000 ) );
#392 = CARTESIAN_POINT( '', ( -262.000000000000, 5.00000000000011, 116.000000000000 ) );
#393 = DIRECTION( '', ( 0.000000000000000, 0.000000000000000, -1.00000000000000 ) );
#394 = DIRECTION( '', ( 0.000000000000000, -1.00000000000000, 0.000000000000000 ) );
#395 = CARTESIAN_POINT( '', ( 262.000000000000, 5.00000000000011, 116.000000000000 ) );
#396 = DIRECTION( '', ( 0.000000000000000, 0.000000000000000, -1.00000000000000 ) );
#397 = DIRECTION( '', ( 0.000000000000000, -1.00000000000000, 0.000000000000000 ) );
#398 = CARTESIAN_POINT( '', ( 215.000000000000, 5.00000000000014, 116.000000000000 ) );
#399 = DIRECTION( '', ( 0.000000000000000, 0.000000000000000, -1.00000000000000 ) );
#400 = DIRECTION( '', ( 0.000000000000000, -1.00000000000000, 0.000000000000000 ) );
#401 = CARTESIAN_POINT( '', ( -215.000000000000, 5.00000000000009, 116.000000000000 ) );
#402 = DIRECTION( '', ( 0.000000000000000, 0.000000000000000, -1.00000000000000 ) );
#403 = DIRECTION( '', ( 0.000000000000000, -1.00000000000000, 0.000000000000000 ) );
#404 = DIRECTION( '', ( -1.00000000000000, 2.03742690131504E-016, 0.000000000000000 ) );
#405 = DIRECTION( '', ( 0.000000000000000, -1.00000000000000, 0.000000000000000 ) );
#406 = DIRECTION( '', ( 1.00000000000000, -6.98546366165157E-017, 0.000000000000000 ) );
#407 = DIRECTION( '', ( 0.000000000000000, 1.00000000000000, 0.000000000000000 ) );
#408 = DIRECTION( '', ( 0.000000000000000, 0.000000000000000, -1.00000000000000 ) );
#409 = DIRECTION( '', ( 0.000000000000000, 0.000000000000000, -1.00000000000000 ) );
#410 = DIRECTION( '', ( 0.000000000000000, 0.000000000000000, -1.00000000000000 ) );
#411 = DIRECTION( '', ( 0.000000000000000, 0.000000000000000, -1.00000000000000 ) );
ENDSEC;
END-ISO-10303-21;
