ISO-10303-21;
HEADER;
FILE_DESCRIPTION( ( 'Unknown' ), '1' );
FILE_NAME( 'M:/Piezas_3D/Placas_Par/G2/OS_G2_696x796x096_.stp', 'Unknown', ( 'Unknown' ), ( 'Unknown' ), 'PSStep 16.0.42', 'Unknown', '  ' );
FILE_SCHEMA( ( 'AUTOMOTIVE_DESIGN { 1 0 10303 214 1 1 1 1 }' ) );
ENDSEC;
DATA;
#1 = MECHANICAL_DESIGN_GEOMETRIC_PRESENTATION_REPRESENTATION( ' ', ( #10, #11, #12, #13, #14, #15, #16, #17, #18, #19 ), #6 );
#2 = PRODUCT_DEFINITION_CONTEXT( '', #20, 'design' );
#3 = APPLICATION_PROTOCOL_DEFINITION( 'international standard', 'automotive_design', 2001, #20 );
#4 = PRODUCT_CATEGORY_RELATIONSHIP( 'NONE', 'NONE', #21, #22 );
#5 = SHAPE_DEFINITION_REPRESENTATION( #23, #24 );
#6 =  ( GEOMETRIC_REPRESENTATION_CONTEXT( 3 )GLOBAL_UNCERTAINTY_ASSIGNED_CONTEXT( ( #27 ) )GLOBAL_UNIT_ASSIGNED_CONTEXT( ( #29, #30, #31 ) )REPRESENTATION_CONTEXT( 'NONE', 'WORKSPACE' ) );
#10 = STYLED_ITEM( '', ( #33 ), #34 );
#11 = STYLED_ITEM( '', ( #35 ), #36 );
#12 = STYLED_ITEM( '', ( #37 ), #38 );
#13 = STYLED_ITEM( '', ( #39 ), #40 );
#14 = STYLED_ITEM( '', ( #41 ), #42 );
#15 = STYLED_ITEM( '', ( #43 ), #44 );
#16 = STYLED_ITEM( '', ( #45 ), #46 );
#17 = STYLED_ITEM( '', ( #47 ), #48 );
#18 = STYLED_ITEM( '', ( #49 ), #50 );
#19 = STYLED_ITEM( '', ( #51 ), #52 );
#20 = APPLICATION_CONTEXT( 'core data for automotive mechanical design processes' );
#21 = PRODUCT_CATEGORY( 'part', 'NONE' );
#22 = PRODUCT_RELATED_PRODUCT_CATEGORY( 'detail', ' ', ( #53 ) );
#23 = PRODUCT_DEFINITION_SHAPE( 'NONE', 'NONE', #54 );
#24 = ADVANCED_BREP_SHAPE_REPRESENTATION( '1', ( #55, #56 ), #6 );
#27 = UNCERTAINTY_MEASURE_WITH_UNIT( LENGTH_MEASURE( 0.00100000000000000 ), #29, '', '' );
#29 =  ( CONVERSION_BASED_UNIT( 'MILLIMETRE', #59 )LENGTH_UNIT(  )NAMED_UNIT( #62 ) );
#30 =  ( NAMED_UNIT( #64 )PLANE_ANGLE_UNIT(  )SI_UNIT( $, .RADIAN. ) );
#31 =  ( NAMED_UNIT( #64 )SI_UNIT( $, .STERADIAN. )SOLID_ANGLE_UNIT(  ) );
#33 = PRESENTATION_STYLE_ASSIGNMENT( ( #70 ) );
#34 = ADVANCED_FACE( '', ( #71 ), #72, .F. );
#35 = PRESENTATION_STYLE_ASSIGNMENT( ( #73 ) );
#36 = ADVANCED_FACE( '', ( #74 ), #75, .F. );
#37 = PRESENTATION_STYLE_ASSIGNMENT( ( #76 ) );
#38 = ADVANCED_FACE( '', ( #77 ), #78, .F. );
#39 = PRESENTATION_STYLE_ASSIGNMENT( ( #79 ) );
#40 = ADVANCED_FACE( '', ( #80, #81 ), #82, .F. );
#41 = PRESENTATION_STYLE_ASSIGNMENT( ( #83 ) );
#42 = ADVANCED_FACE( '', ( #84, #85 ), #86, .F. );
#43 = PRESENTATION_STYLE_ASSIGNMENT( ( #87 ) );
#44 = ADVANCED_FACE( '', ( #88, #89 ), #90, .F. );
#45 = PRESENTATION_STYLE_ASSIGNMENT( ( #91 ) );
#46 = ADVANCED_FACE( '', ( #92, #93, #94, #95, #96 ), #97, .T. );
#47 = PRESENTATION_STYLE_ASSIGNMENT( ( #98 ) );
#48 = ADVANCED_FACE( '', ( #99 ), #100, .F. );
#49 = PRESENTATION_STYLE_ASSIGNMENT( ( #101 ) );
#50 = ADVANCED_FACE( '', ( #102, #103 ), #104, .F. );
#51 = PRESENTATION_STYLE_ASSIGNMENT( ( #105 ) );
#52 = ADVANCED_FACE( '', ( #106, #107, #108, #109, #110 ), #111, .F. );
#53 = PRODUCT( '1', '1', 'PART-1-DESC', ( #112 ) );
#54 = PRODUCT_DEFINITION( 'NONE', 'NONE', #113, #2 );
#55 = MANIFOLD_SOLID_BREP( '1', #114 );
#56 = AXIS2_PLACEMENT_3D( '', #115, #116, #117 );
#59 = LENGTH_MEASURE_WITH_UNIT( LENGTH_MEASURE( 1.00000000000000 ), #118 );
#62 = DIMENSIONAL_EXPONENTS( 1.00000000000000, 0.000000000000000, 0.000000000000000, 0.000000000000000, 0.000000000000000, 0.000000000000000, 0.000000000000000 );
#64 = DIMENSIONAL_EXPONENTS( 0.000000000000000, 0.000000000000000, 0.000000000000000, 0.000000000000000, 0.000000000000000, 0.000000000000000, 0.000000000000000 );
#70 = SURFACE_STYLE_USAGE( .BOTH., #119 );
#71 = FACE_OUTER_BOUND( '', #120, .T. );
#72 = PLANE( '', #121 );
#73 = SURFACE_STYLE_USAGE( .BOTH., #122 );
#74 = FACE_OUTER_BOUND( '', #123, .T. );
#75 = PLANE( '', #124 );
#76 = SURFACE_STYLE_USAGE( .BOTH., #125 );
#77 = FACE_OUTER_BOUND( '', #126, .T. );
#78 = PLANE( '', #127 );
#79 = SURFACE_STYLE_USAGE( .BOTH., #128 );
#80 = FACE_OUTER_BOUND( '', #129, .T. );
#81 = FACE_OUTER_BOUND( '', #130, .T. );
#82 = CYLINDRICAL_SURFACE( '', #131, 27.0000000000000 );
#83 = SURFACE_STYLE_USAGE( .BOTH., #132 );
#84 = FACE_OUTER_BOUND( '', #133, .T. );
#85 = FACE_OUTER_BOUND( '', #134, .T. );
#86 = CYLINDRICAL_SURFACE( '', #135, 11.0000000000000 );
#87 = SURFACE_STYLE_USAGE( .BOTH., #136 );
#88 = FACE_OUTER_BOUND( '', #137, .T. );
#89 = FACE_OUTER_BOUND( '', #138, .T. );
#90 = CYLINDRICAL_SURFACE( '', #139, 27.0000000000000 );
#91 = SURFACE_STYLE_USAGE( .BOTH., #140 );
#92 = FACE_BOUND( '', #141, .T. );
#93 = FACE_BOUND( '', #142, .T. );
#94 = FACE_BOUND( '', #143, .T. );
#95 = FACE_BOUND( '', #144, .T. );
#96 = FACE_OUTER_BOUND( '', #145, .T. );
#97 = PLANE( '', #146 );
#98 = SURFACE_STYLE_USAGE( .BOTH., #147 );
#99 = FACE_OUTER_BOUND( '', #148, .T. );
#100 = PLANE( '', #149 );
#101 = SURFACE_STYLE_USAGE( .BOTH., #150 );
#102 = FACE_OUTER_BOUND( '', #151, .T. );
#103 = FACE_OUTER_BOUND( '', #152, .T. );
#104 = CYLINDRICAL_SURFACE( '', #153, 11.0000000000000 );
#105 = SURFACE_STYLE_USAGE( .BOTH., #154 );
#106 = FACE_BOUND( '', #155, .T. );
#107 = FACE_BOUND( '', #156, .T. );
#108 = FACE_BOUND( '', #157, .T. );
#109 = FACE_BOUND( '', #158, .T. );
#110 = FACE_OUTER_BOUND( '', #159, .T. );
#111 = PLANE( '', #160 );
#112 = PRODUCT_CONTEXT( '', #20, 'mechanical' );
#113 = PRODUCT_DEFINITION_FORMATION_WITH_SPECIFIED_SOURCE( ' ', 'NONE', #53, .NOT_KNOWN. );
#114 = CLOSED_SHELL( '', ( #50, #52, #34, #46, #36, #48, #38, #42, #40, #44 ) );
#115 = CARTESIAN_POINT( '', ( 0.000000000000000, 0.000000000000000, 0.000000000000000 ) );
#116 = DIRECTION( '', ( 0.000000000000000, 0.000000000000000, 1.00000000000000 ) );
#117 = DIRECTION( '', ( 1.00000000000000, 0.000000000000000, 0.000000000000000 ) );
#118 =  ( LENGTH_UNIT(  )NAMED_UNIT( #62 )SI_UNIT( .MILLI., .METRE. ) );
#119 = SURFACE_SIDE_STYLE( '', ( #162 ) );
#120 = EDGE_LOOP( '', ( #163, #164, #165, #166 ) );
#121 = AXIS2_PLACEMENT_3D( '', #167, #168, #169 );
#122 = SURFACE_SIDE_STYLE( '', ( #170 ) );
#123 = EDGE_LOOP( '', ( #171, #172, #173, #174 ) );
#124 = AXIS2_PLACEMENT_3D( '', #175, #176, #177 );
#125 = SURFACE_SIDE_STYLE( '', ( #178 ) );
#126 = EDGE_LOOP( '', ( #179, #180, #181, #182 ) );
#127 = AXIS2_PLACEMENT_3D( '', #183, #184, #185 );
#128 = SURFACE_SIDE_STYLE( '', ( #186 ) );
#129 = EDGE_LOOP( '', ( #187 ) );
#130 = EDGE_LOOP( '', ( #188 ) );
#131 = AXIS2_PLACEMENT_3D( '', #189, #190, #191 );
#132 = SURFACE_SIDE_STYLE( '', ( #192 ) );
#133 = EDGE_LOOP( '', ( #193 ) );
#134 = EDGE_LOOP( '', ( #194 ) );
#135 = AXIS2_PLACEMENT_3D( '', #195, #196, #197 );
#136 = SURFACE_SIDE_STYLE( '', ( #198 ) );
#137 = EDGE_LOOP( '', ( #199 ) );
#138 = EDGE_LOOP( '', ( #200 ) );
#139 = AXIS2_PLACEMENT_3D( '', #201, #202, #203 );
#140 = SURFACE_SIDE_STYLE( '', ( #204 ) );
#141 = EDGE_LOOP( '', ( #205 ) );
#142 = EDGE_LOOP( '', ( #206 ) );
#143 = EDGE_LOOP( '', ( #207 ) );
#144 = EDGE_LOOP( '', ( #208 ) );
#145 = EDGE_LOOP( '', ( #209, #210, #211, #212 ) );
#146 = AXIS2_PLACEMENT_3D( '', #213, #214, #215 );
#147 = SURFACE_SIDE_STYLE( '', ( #216 ) );
#148 = EDGE_LOOP( '', ( #217, #218, #219, #220 ) );
#149 = AXIS2_PLACEMENT_3D( '', #221, #222, #223 );
#150 = SURFACE_SIDE_STYLE( '', ( #224 ) );
#151 = EDGE_LOOP( '', ( #225 ) );
#152 = EDGE_LOOP( '', ( #226 ) );
#153 = AXIS2_PLACEMENT_3D( '', #227, #228, #229 );
#154 = SURFACE_SIDE_STYLE( '', ( #230 ) );
#155 = EDGE_LOOP( '', ( #231 ) );
#156 = EDGE_LOOP( '', ( #232 ) );
#157 = EDGE_LOOP( '', ( #233 ) );
#158 = EDGE_LOOP( '', ( #234 ) );
#159 = EDGE_LOOP( '', ( #235, #236, #237, #238 ) );
#160 = AXIS2_PLACEMENT_3D( '', #239, #240, #241 );
#162 = SURFACE_STYLE_FILL_AREA( #242 );
#163 = ORIENTED_EDGE( '', *, *, #243, .T. );
#164 = ORIENTED_EDGE( '', *, *, #244, .F. );
#165 = ORIENTED_EDGE( '', *, *, #245, .F. );
#166 = ORIENTED_EDGE( '', *, *, #246, .T. );
#167 = CARTESIAN_POINT( '', ( 398.000000000000, -42.0000000000000, 96.0000000000000 ) );
#168 = DIRECTION( '', ( -1.00000000000000, 0.000000000000000, 0.000000000000000 ) );
#169 = DIRECTION( '', ( 0.000000000000000, 0.000000000000000, 1.00000000000000 ) );
#170 = SURFACE_STYLE_FILL_AREA( #247 );
#171 = ORIENTED_EDGE( '', *, *, #248, .T. );
#172 = ORIENTED_EDGE( '', *, *, #246, .F. );
#173 = ORIENTED_EDGE( '', *, *, #249, .F. );
#174 = ORIENTED_EDGE( '', *, *, #250, .T. );
#175 = CARTESIAN_POINT( '', ( -398.000000000000, -42.0000000000000, 96.0000000000000 ) );
#176 = DIRECTION( '', ( 5.23032203812103E-017, 1.00000000000000, 0.000000000000000 ) );
#177 = DIRECTION( '', ( -1.00000000000000, 5.23032203812103E-017, 0.000000000000000 ) );
#178 = SURFACE_STYLE_FILL_AREA( #251 );
#179 = ORIENTED_EDGE( '', *, *, #252, .T. );
#180 = ORIENTED_EDGE( '', *, *, #250, .F. );
#181 = ORIENTED_EDGE( '', *, *, #253, .F. );
#182 = ORIENTED_EDGE( '', *, *, #254, .T. );
#183 = CARTESIAN_POINT( '', ( -398.000000000000, 42.0000000000000, 96.0000000000000 ) );
#184 = DIRECTION( '', ( 1.00000000000000, 0.000000000000000, 0.000000000000000 ) );
#185 = DIRECTION( '', ( 0.000000000000000, 0.000000000000000, -1.00000000000000 ) );
#186 = SURFACE_STYLE_FILL_AREA( #255 );
#187 = ORIENTED_EDGE( '', *, *, #256, .F. );
#188 = ORIENTED_EDGE( '', *, *, #257, .F. );
#189 = CARTESIAN_POINT( '', ( 346.000000000000, 10.0000000000000, 96.0000000000000 ) );
#190 = DIRECTION( '', ( -0.000000000000000, -0.000000000000000, 1.00000000000000 ) );
#191 = DIRECTION( '', ( 0.000000000000000, -1.00000000000000, 0.000000000000000 ) );
#192 = SURFACE_STYLE_FILL_AREA( #258 );
#193 = ORIENTED_EDGE( '', *, *, #259, .F. );
#194 = ORIENTED_EDGE( '', *, *, #260, .F. );
#195 = CARTESIAN_POINT( '', ( 287.000000000000, 10.0000000000000, 96.0000000000000 ) );
#196 = DIRECTION( '', ( -0.000000000000000, -0.000000000000000, 1.00000000000000 ) );
#197 = DIRECTION( '', ( 0.000000000000000, -1.00000000000000, 0.000000000000000 ) );
#198 = SURFACE_STYLE_FILL_AREA( #261 );
#199 = ORIENTED_EDGE( '', *, *, #262, .F. );
#200 = ORIENTED_EDGE( '', *, *, #263, .F. );
#201 = CARTESIAN_POINT( '', ( -346.000000000000, 10.0000000000000, 96.0000000000000 ) );
#202 = DIRECTION( '', ( -0.000000000000000, -0.000000000000000, 1.00000000000000 ) );
#203 = DIRECTION( '', ( 0.000000000000000, -1.00000000000000, 0.000000000000000 ) );
#204 = SURFACE_STYLE_FILL_AREA( #264 );
#205 = ORIENTED_EDGE( '', *, *, #262, .T. );
#206 = ORIENTED_EDGE( '', *, *, #256, .T. );
#207 = ORIENTED_EDGE( '', *, *, #259, .T. );
#208 = ORIENTED_EDGE( '', *, *, #265, .T. );
#209 = ORIENTED_EDGE( '', *, *, #266, .T. );
#210 = ORIENTED_EDGE( '', *, *, #253, .T. );
#211 = ORIENTED_EDGE( '', *, *, #249, .T. );
#212 = ORIENTED_EDGE( '', *, *, #245, .T. );
#213 = CARTESIAN_POINT( '', ( -398.000000000000, 42.0000000000000, 96.0000000000000 ) );
#214 = DIRECTION( '', ( 0.000000000000000, 0.000000000000000, 1.00000000000000 ) );
#215 = DIRECTION( '', ( 1.00000000000000, 0.000000000000000, 0.000000000000000 ) );
#216 = SURFACE_STYLE_FILL_AREA( #267 );
#217 = ORIENTED_EDGE( '', *, *, #268, .T. );
#218 = ORIENTED_EDGE( '', *, *, #254, .F. );
#219 = ORIENTED_EDGE( '', *, *, #266, .F. );
#220 = ORIENTED_EDGE( '', *, *, #244, .T. );
#221 = CARTESIAN_POINT( '', ( 398.000000000000, 42.0000000000000, 96.0000000000000 ) );
#222 = DIRECTION( '', ( -3.48688135874735E-017, -1.00000000000000, 0.000000000000000 ) );
#223 = DIRECTION( '', ( 1.00000000000000, -3.48688135874735E-017, 0.000000000000000 ) );
#224 = SURFACE_STYLE_FILL_AREA( #269 );
#225 = ORIENTED_EDGE( '', *, *, #265, .F. );
#226 = ORIENTED_EDGE( '', *, *, #270, .F. );
#227 = CARTESIAN_POINT( '', ( -287.000000000000, 10.0000000000000, 96.0000000000000 ) );
#228 = DIRECTION( '', ( -0.000000000000000, -0.000000000000000, 1.00000000000000 ) );
#229 = DIRECTION( '', ( 0.000000000000000, -1.00000000000000, 0.000000000000000 ) );
#230 = SURFACE_STYLE_FILL_AREA( #271 );
#231 = ORIENTED_EDGE( '', *, *, #263, .T. );
#232 = ORIENTED_EDGE( '', *, *, #257, .T. );
#233 = ORIENTED_EDGE( '', *, *, #260, .T. );
#234 = ORIENTED_EDGE( '', *, *, #270, .T. );
#235 = ORIENTED_EDGE( '', *, *, #268, .F. );
#236 = ORIENTED_EDGE( '', *, *, #243, .F. );
#237 = ORIENTED_EDGE( '', *, *, #248, .F. );
#238 = ORIENTED_EDGE( '', *, *, #252, .F. );
#239 = CARTESIAN_POINT( '', ( -398.000000000000, 42.0000000000000, 0.000000000000000 ) );
#240 = DIRECTION( '', ( 0.000000000000000, 0.000000000000000, 1.00000000000000 ) );
#241 = DIRECTION( '', ( 1.00000000000000, 0.000000000000000, 0.000000000000000 ) );
#242 = FILL_AREA_STYLE( '', ( #272 ) );
#243 = EDGE_CURVE( '', #273, #274, #275, .T. );
#244 = EDGE_CURVE( '', #276, #274, #277, .T. );
#245 = EDGE_CURVE( '', #278, #276, #279, .T. );
#246 = EDGE_CURVE( '', #278, #273, #280, .T. );
#247 = FILL_AREA_STYLE( '', ( #281 ) );
#248 = EDGE_CURVE( '', #282, #273, #283, .T. );
#249 = EDGE_CURVE( '', #284, #278, #285, .T. );
#250 = EDGE_CURVE( '', #284, #282, #286, .T. );
#251 = FILL_AREA_STYLE( '', ( #287 ) );
#252 = EDGE_CURVE( '', #288, #282, #289, .T. );
#253 = EDGE_CURVE( '', #290, #284, #291, .T. );
#254 = EDGE_CURVE( '', #290, #288, #292, .T. );
#255 = FILL_AREA_STYLE( '', ( #293 ) );
#256 = EDGE_CURVE( '', #294, #294, #295, .T. );
#257 = EDGE_CURVE( '', #296, #296, #297, .T. );
#258 = FILL_AREA_STYLE( '', ( #298 ) );
#259 = EDGE_CURVE( '', #299, #299, #300, .T. );
#260 = EDGE_CURVE( '', #301, #301, #302, .T. );
#261 = FILL_AREA_STYLE( '', ( #303 ) );
#262 = EDGE_CURVE( '', #304, #304, #305, .T. );
#263 = EDGE_CURVE( '', #306, #306, #307, .T. );
#264 = FILL_AREA_STYLE( '', ( #308 ) );
#265 = EDGE_CURVE( '', #309, #309, #310, .T. );
#266 = EDGE_CURVE( '', #276, #290, #311, .T. );
#267 = FILL_AREA_STYLE( '', ( #312 ) );
#268 = EDGE_CURVE( '', #274, #288, #313, .T. );
#269 = FILL_AREA_STYLE( '', ( #314 ) );
#270 = EDGE_CURVE( '', #315, #315, #316, .T. );
#271 = FILL_AREA_STYLE( '', ( #317 ) );
#272 = FILL_AREA_STYLE_COLOUR( '', #318 );
#273 = VERTEX_POINT( '', #319 );
#274 = VERTEX_POINT( '', #320 );
#275 = LINE( '', #321, #322 );
#276 = VERTEX_POINT( '', #323 );
#277 = LINE( '', #324, #325 );
#278 = VERTEX_POINT( '', #326 );
#279 = LINE( '', #327, #328 );
#280 = LINE( '', #329, #330 );
#281 = FILL_AREA_STYLE_COLOUR( '', #331 );
#282 = VERTEX_POINT( '', #332 );
#283 = LINE( '', #333, #334 );
#284 = VERTEX_POINT( '', #335 );
#285 = LINE( '', #336, #337 );
#286 = LINE( '', #338, #339 );
#287 = FILL_AREA_STYLE_COLOUR( '', #340 );
#288 = VERTEX_POINT( '', #341 );
#289 = LINE( '', #342, #343 );
#290 = VERTEX_POINT( '', #344 );
#291 = LINE( '', #345, #346 );
#292 = LINE( '', #347, #348 );
#293 = FILL_AREA_STYLE_COLOUR( '', #349 );
#294 = VERTEX_POINT( '', #350 );
#295 = CIRCLE( '', #351, 27.0000000000000 );
#296 = VERTEX_POINT( '', #352 );
#297 = CIRCLE( '', #353, 27.0000000000000 );
#298 = FILL_AREA_STYLE_COLOUR( '', #354 );
#299 = VERTEX_POINT( '', #355 );
#300 = CIRCLE( '', #356, 11.0000000000000 );
#301 = VERTEX_POINT( '', #357 );
#302 = CIRCLE( '', #358, 11.0000000000000 );
#303 = FILL_AREA_STYLE_COLOUR( '', #359 );
#304 = VERTEX_POINT( '', #360 );
#305 = CIRCLE( '', #361, 27.0000000000000 );
#306 = VERTEX_POINT( '', #362 );
#307 = CIRCLE( '', #363, 27.0000000000000 );
#308 = FILL_AREA_STYLE_COLOUR( '', #364 );
#309 = VERTEX_POINT( '', #365 );
#310 = CIRCLE( '', #366, 11.0000000000000 );
#311 = LINE( '', #367, #368 );
#312 = FILL_AREA_STYLE_COLOUR( '', #369 );
#313 = LINE( '', #370, #371 );
#314 = FILL_AREA_STYLE_COLOUR( '', #372 );
#315 = VERTEX_POINT( '', #373 );
#316 = CIRCLE( '', #374, 11.0000000000000 );
#317 = FILL_AREA_STYLE_COLOUR( '', #375 );
#318 = COLOUR_RGB( '', 0.752941191196442, 0.752941191196442, 0.752941191196442 );
#319 = CARTESIAN_POINT( '', ( 398.000000000000, -42.0000000000000, 0.000000000000000 ) );
#320 = CARTESIAN_POINT( '', ( 398.000000000000, 42.0000000000000, 0.000000000000000 ) );
#321 = CARTESIAN_POINT( '', ( 398.000000000000, -42.0000000000000, 0.000000000000000 ) );
#322 = VECTOR( '', #376, 1000.00000000000 );
#323 = CARTESIAN_POINT( '', ( 398.000000000000, 42.0000000000000, 96.0000000000000 ) );
#324 = CARTESIAN_POINT( '', ( 398.000000000000, 42.0000000000000, 96.0000000000000 ) );
#325 = VECTOR( '', #377, 1000.00000000000 );
#326 = CARTESIAN_POINT( '', ( 398.000000000000, -42.0000000000000, 96.0000000000000 ) );
#327 = CARTESIAN_POINT( '', ( 398.000000000000, -42.0000000000000, 96.0000000000000 ) );
#328 = VECTOR( '', #378, 1000.00000000000 );
#329 = CARTESIAN_POINT( '', ( 398.000000000000, -42.0000000000000, 96.0000000000000 ) );
#330 = VECTOR( '', #379, 1000.00000000000 );
#331 = COLOUR_RGB( '', 0.752941191196442, 0.752941191196442, 0.752941191196442 );
#332 = CARTESIAN_POINT( '', ( -398.000000000000, -42.0000000000000, 0.000000000000000 ) );
#333 = CARTESIAN_POINT( '', ( -398.000000000000, -42.0000000000000, 0.000000000000000 ) );
#334 = VECTOR( '', #380, 1000.00000000000 );
#335 = CARTESIAN_POINT( '', ( -398.000000000000, -42.0000000000000, 96.0000000000000 ) );
#336 = CARTESIAN_POINT( '', ( -398.000000000000, -42.0000000000000, 96.0000000000000 ) );
#337 = VECTOR( '', #381, 1000.00000000000 );
#338 = CARTESIAN_POINT( '', ( -398.000000000000, -42.0000000000000, 96.0000000000000 ) );
#339 = VECTOR( '', #382, 1000.00000000000 );
#340 = COLOUR_RGB( '', 0.752941191196442, 0.752941191196442, 0.752941191196442 );
#341 = CARTESIAN_POINT( '', ( -398.000000000000, 42.0000000000000, 0.000000000000000 ) );
#342 = CARTESIAN_POINT( '', ( -398.000000000000, 42.0000000000000, 0.000000000000000 ) );
#343 = VECTOR( '', #383, 1000.00000000000 );
#344 = CARTESIAN_POINT( '', ( -398.000000000000, 42.0000000000000, 96.0000000000000 ) );
#345 = CARTESIAN_POINT( '', ( -398.000000000000, 42.0000000000000, 96.0000000000000 ) );
#346 = VECTOR( '', #384, 1000.00000000000 );
#347 = CARTESIAN_POINT( '', ( -398.000000000000, 42.0000000000000, 96.0000000000000 ) );
#348 = VECTOR( '', #385, 1000.00000000000 );
#349 = COLOUR_RGB( '', 0.752941191196442, 0.752941191196442, 0.752941191196442 );
#350 = CARTESIAN_POINT( '', ( 346.000000000000, -17.0000000000000, 96.0000000000000 ) );
#351 = AXIS2_PLACEMENT_3D( '', #386, #387, #388 );
#352 = CARTESIAN_POINT( '', ( 373.000000000000, 10.0000000000000, 0.000000000000000 ) );
#353 = AXIS2_PLACEMENT_3D( '', #389, #390, #391 );
#354 = COLOUR_RGB( '', 0.752941191196442, 0.752941191196442, 0.752941191196442 );
#355 = CARTESIAN_POINT( '', ( 287.000000000000, -0.999999999999999, 96.0000000000000 ) );
#356 = AXIS2_PLACEMENT_3D( '', #392, #393, #394 );
#357 = CARTESIAN_POINT( '', ( 298.000000000000, 10.0000000000000, 0.000000000000000 ) );
#358 = AXIS2_PLACEMENT_3D( '', #395, #396, #397 );
#359 = COLOUR_RGB( '', 0.752941191196442, 0.752941191196442, 0.752941191196442 );
#360 = CARTESIAN_POINT( '', ( -346.000000000000, -17.0000000000000, 96.0000000000000 ) );
#361 = AXIS2_PLACEMENT_3D( '', #398, #399, #400 );
#362 = CARTESIAN_POINT( '', ( -319.000000000000, 10.0000000000000, 0.000000000000000 ) );
#363 = AXIS2_PLACEMENT_3D( '', #401, #402, #403 );
#364 = COLOUR_RGB( '', 0.752941191196442, 0.752941191196442, 0.752941191196442 );
#365 = CARTESIAN_POINT( '', ( -287.000000000000, -0.999999999999999, 96.0000000000000 ) );
#366 = AXIS2_PLACEMENT_3D( '', #404, #405, #406 );
#367 = CARTESIAN_POINT( '', ( 398.000000000000, 42.0000000000000, 96.0000000000000 ) );
#368 = VECTOR( '', #407, 1000.00000000000 );
#369 = COLOUR_RGB( '', 0.752941191196442, 0.752941191196442, 0.752941191196442 );
#370 = CARTESIAN_POINT( '', ( 398.000000000000, 42.0000000000000, 0.000000000000000 ) );
#371 = VECTOR( '', #408, 1000.00000000000 );
#372 = COLOUR_RGB( '', 0.752941191196442, 0.752941191196442, 0.752941191196442 );
#373 = CARTESIAN_POINT( '', ( -276.000000000000, 10.0000000000000, 0.000000000000000 ) );
#374 = AXIS2_PLACEMENT_3D( '', #409, #410, #411 );
#375 = COLOUR_RGB( '', 0.752941191196442, 0.752941191196442, 0.752941191196442 );
#376 = DIRECTION( '', ( 0.000000000000000, 1.00000000000000, 0.000000000000000 ) );
#377 = DIRECTION( '', ( 0.000000000000000, 0.000000000000000, -1.00000000000000 ) );
#378 = DIRECTION( '', ( 0.000000000000000, 1.00000000000000, 0.000000000000000 ) );
#379 = DIRECTION( '', ( 0.000000000000000, 0.000000000000000, -1.00000000000000 ) );
#380 = DIRECTION( '', ( 1.00000000000000, -5.23032203812103E-017, 0.000000000000000 ) );
#381 = DIRECTION( '', ( 1.00000000000000, -5.23032203812103E-017, 0.000000000000000 ) );
#382 = DIRECTION( '', ( 0.000000000000000, 0.000000000000000, -1.00000000000000 ) );
#383 = DIRECTION( '', ( 0.000000000000000, -1.00000000000000, 0.000000000000000 ) );
#384 = DIRECTION( '', ( 0.000000000000000, -1.00000000000000, 0.000000000000000 ) );
#385 = DIRECTION( '', ( 0.000000000000000, 0.000000000000000, -1.00000000000000 ) );
#386 = CARTESIAN_POINT( '', ( 346.000000000000, 10.0000000000000, 96.0000000000000 ) );
#387 = DIRECTION( '', ( 0.000000000000000, 0.000000000000000, -1.00000000000000 ) );
#388 = DIRECTION( '', ( 0.000000000000000, -1.00000000000000, 0.000000000000000 ) );
#389 = CARTESIAN_POINT( '', ( 346.000000000000, 10.0000000000000, 0.000000000000000 ) );
#390 = DIRECTION( '', ( 0.000000000000000, 0.000000000000000, 1.00000000000000 ) );
#391 = DIRECTION( '', ( 1.00000000000000, 0.000000000000000, 0.000000000000000 ) );
#392 = CARTESIAN_POINT( '', ( 287.000000000000, 10.0000000000000, 96.0000000000000 ) );
#393 = DIRECTION( '', ( 0.000000000000000, 0.000000000000000, -1.00000000000000 ) );
#394 = DIRECTION( '', ( 0.000000000000000, -1.00000000000000, 0.000000000000000 ) );
#395 = CARTESIAN_POINT( '', ( 287.000000000000, 10.0000000000000, 0.000000000000000 ) );
#396 = DIRECTION( '', ( 0.000000000000000, 0.000000000000000, 1.00000000000000 ) );
#397 = DIRECTION( '', ( 1.00000000000000, 0.000000000000000, 0.000000000000000 ) );
#398 = CARTESIAN_POINT( '', ( -346.000000000000, 10.0000000000000, 96.0000000000000 ) );
#399 = DIRECTION( '', ( 0.000000000000000, 0.000000000000000, -1.00000000000000 ) );
#400 = DIRECTION( '', ( 0.000000000000000, -1.00000000000000, 0.000000000000000 ) );
#401 = CARTESIAN_POINT( '', ( -346.000000000000, 10.0000000000000, 0.000000000000000 ) );
#402 = DIRECTION( '', ( 0.000000000000000, 0.000000000000000, 1.00000000000000 ) );
#403 = DIRECTION( '', ( 1.00000000000000, 0.000000000000000, 0.000000000000000 ) );
#404 = CARTESIAN_POINT( '', ( -287.000000000000, 10.0000000000000, 96.0000000000000 ) );
#405 = DIRECTION( '', ( 0.000000000000000, 0.000000000000000, -1.00000000000000 ) );
#406 = DIRECTION( '', ( 0.000000000000000, -1.00000000000000, 0.000000000000000 ) );
#407 = DIRECTION( '', ( -1.00000000000000, 3.48688135874735E-017, 0.000000000000000 ) );
#408 = DIRECTION( '', ( -1.00000000000000, 3.48688135874735E-017, 0.000000000000000 ) );
#409 = CARTESIAN_POINT( '', ( -287.000000000000, 10.0000000000000, 0.000000000000000 ) );
#410 = DIRECTION( '', ( 0.000000000000000, 0.000000000000000, 1.00000000000000 ) );
#411 = DIRECTION( '', ( 1.00000000000000, 0.000000000000000, 0.000000000000000 ) );
ENDSEC;
END-ISO-10303-21;
