ISO-10303-21;
HEADER;
FILE_DESCRIPTION( ( 'Unknown' ), '1' );
FILE_NAME( 'M:/Piezas_3D/Placas_Par/G2/OS_G2_696x796x116_.stp', 'Unknown', ( 'Unknown' ), ( 'Unknown' ), 'PSStep 16.0.42', 'Unknown', '  ' );
FILE_SCHEMA( ( 'AUTOMOTIVE_DESIGN { 1 0 10303 214 1 1 1 1 }' ) );
ENDSEC;
DATA;
#1 = MECHANICAL_DESIGN_GEOMETRIC_PRESENTATION_REPRESENTATION( ' ', ( #10, #11, #12, #13, #14, #15, #16, #17, #18, #19 ), #6 );
#2 = PRODUCT_DEFINITION_CONTEXT( '', #20, 'design' );
#3 = APPLICATION_PROTOCOL_DEFINITION( 'international standard', 'automotive_design', 2001, #20 );
#4 = PRODUCT_CATEGORY_RELATIONSHIP( 'NONE', 'NONE', #21, #22 );
#5 = SHAPE_DEFINITION_REPRESENTATION( #23, #24 );
#6 =  ( GEOMETRIC_REPRESENTATION_CONTEXT( 3 )GLOBAL_UNCERTAINTY_ASSIGNED_CONTEXT( ( #27 ) )GLOBAL_UNIT_ASSIGNED_CONTEXT( ( #29, #30, #31 ) )REPRESENTATION_CONTEXT( 'NONE', 'WORKSPACE' ) );
#10 = STYLED_ITEM( '', ( #33 ), #34 );
#11 = STYLED_ITEM( '', ( #35 ), #36 );
#12 = STYLED_ITEM( '', ( #37 ), #38 );
#13 = STYLED_ITEM( '', ( #39 ), #40 );
#14 = STYLED_ITEM( '', ( #41 ), #42 );
#15 = STYLED_ITEM( '', ( #43 ), #44 );
#16 = STYLED_ITEM( '', ( #45 ), #46 );
#17 = STYLED_ITEM( '', ( #47 ), #48 );
#18 = STYLED_ITEM( '', ( #49 ), #50 );
#19 = STYLED_ITEM( '', ( #51 ), #52 );
#20 = APPLICATION_CONTEXT( 'core data for automotive mechanical design processes' );
#21 = PRODUCT_CATEGORY( 'part', 'NONE' );
#22 = PRODUCT_RELATED_PRODUCT_CATEGORY( 'detail', ' ', ( #53 ) );
#23 = PRODUCT_DEFINITION_SHAPE( 'NONE', 'NONE', #54 );
#24 = ADVANCED_BREP_SHAPE_REPRESENTATION( '1', ( #55, #56 ), #6 );
#27 = UNCERTAINTY_MEASURE_WITH_UNIT( LENGTH_MEASURE( 0.00100000000000000 ), #29, '', '' );
#29 =  ( CONVERSION_BASED_UNIT( 'MILLIMETRE', #59 )LENGTH_UNIT(  )NAMED_UNIT( #62 ) );
#30 =  ( NAMED_UNIT( #64 )PLANE_ANGLE_UNIT(  )SI_UNIT( $, .RADIAN. ) );
#31 =  ( NAMED_UNIT( #64 )SI_UNIT( $, .STERADIAN. )SOLID_ANGLE_UNIT(  ) );
#33 = PRESENTATION_STYLE_ASSIGNMENT( ( #70 ) );
#34 = ADVANCED_FACE( '', ( #71, #72 ), #73, .F. );
#35 = PRESENTATION_STYLE_ASSIGNMENT( ( #74 ) );
#36 = ADVANCED_FACE( '', ( #75 ), #76, .F. );
#37 = PRESENTATION_STYLE_ASSIGNMENT( ( #77 ) );
#38 = ADVANCED_FACE( '', ( #78 ), #79, .F. );
#39 = PRESENTATION_STYLE_ASSIGNMENT( ( #80 ) );
#40 = ADVANCED_FACE( '', ( #81, #82, #83, #84, #85 ), #86, .F. );
#41 = PRESENTATION_STYLE_ASSIGNMENT( ( #87 ) );
#42 = ADVANCED_FACE( '', ( #88, #89, #90, #91, #92 ), #93, .T. );
#43 = PRESENTATION_STYLE_ASSIGNMENT( ( #94 ) );
#44 = ADVANCED_FACE( '', ( #95 ), #96, .F. );
#45 = PRESENTATION_STYLE_ASSIGNMENT( ( #97 ) );
#46 = ADVANCED_FACE( '', ( #98, #99 ), #100, .F. );
#47 = PRESENTATION_STYLE_ASSIGNMENT( ( #101 ) );
#48 = ADVANCED_FACE( '', ( #102 ), #103, .F. );
#49 = PRESENTATION_STYLE_ASSIGNMENT( ( #104 ) );
#50 = ADVANCED_FACE( '', ( #105, #106 ), #107, .F. );
#51 = PRESENTATION_STYLE_ASSIGNMENT( ( #108 ) );
#52 = ADVANCED_FACE( '', ( #109, #110 ), #111, .F. );
#53 = PRODUCT( '1', '1', 'PART-1-DESC', ( #112 ) );
#54 = PRODUCT_DEFINITION( 'NONE', 'NONE', #113, #2 );
#55 = MANIFOLD_SOLID_BREP( '1', #114 );
#56 = AXIS2_PLACEMENT_3D( '', #115, #116, #117 );
#59 = LENGTH_MEASURE_WITH_UNIT( LENGTH_MEASURE( 1.00000000000000 ), #118 );
#62 = DIMENSIONAL_EXPONENTS( 1.00000000000000, 0.000000000000000, 0.000000000000000, 0.000000000000000, 0.000000000000000, 0.000000000000000, 0.000000000000000 );
#64 = DIMENSIONAL_EXPONENTS( 0.000000000000000, 0.000000000000000, 0.000000000000000, 0.000000000000000, 0.000000000000000, 0.000000000000000, 0.000000000000000 );
#70 = SURFACE_STYLE_USAGE( .BOTH., #119 );
#71 = FACE_OUTER_BOUND( '', #120, .T. );
#72 = FACE_OUTER_BOUND( '', #121, .T. );
#73 = CYLINDRICAL_SURFACE( '', #122, 27.0000000000000 );
#74 = SURFACE_STYLE_USAGE( .BOTH., #123 );
#75 = FACE_OUTER_BOUND( '', #124, .T. );
#76 = PLANE( '', #125 );
#77 = SURFACE_STYLE_USAGE( .BOTH., #126 );
#78 = FACE_OUTER_BOUND( '', #127, .T. );
#79 = PLANE( '', #128 );
#80 = SURFACE_STYLE_USAGE( .BOTH., #129 );
#81 = FACE_BOUND( '', #130, .T. );
#82 = FACE_BOUND( '', #131, .T. );
#83 = FACE_BOUND( '', #132, .T. );
#84 = FACE_BOUND( '', #133, .T. );
#85 = FACE_OUTER_BOUND( '', #134, .T. );
#86 = PLANE( '', #135 );
#87 = SURFACE_STYLE_USAGE( .BOTH., #136 );
#88 = FACE_BOUND( '', #137, .T. );
#89 = FACE_BOUND( '', #138, .T. );
#90 = FACE_BOUND( '', #139, .T. );
#91 = FACE_BOUND( '', #140, .T. );
#92 = FACE_OUTER_BOUND( '', #141, .T. );
#93 = PLANE( '', #142 );
#94 = SURFACE_STYLE_USAGE( .BOTH., #143 );
#95 = FACE_OUTER_BOUND( '', #144, .T. );
#96 = PLANE( '', #145 );
#97 = SURFACE_STYLE_USAGE( .BOTH., #146 );
#98 = FACE_OUTER_BOUND( '', #147, .T. );
#99 = FACE_OUTER_BOUND( '', #148, .T. );
#100 = CYLINDRICAL_SURFACE( '', #149, 11.0000000000000 );
#101 = SURFACE_STYLE_USAGE( .BOTH., #150 );
#102 = FACE_OUTER_BOUND( '', #151, .T. );
#103 = PLANE( '', #152 );
#104 = SURFACE_STYLE_USAGE( .BOTH., #153 );
#105 = FACE_OUTER_BOUND( '', #154, .T. );
#106 = FACE_OUTER_BOUND( '', #155, .T. );
#107 = CYLINDRICAL_SURFACE( '', #156, 11.0000000000000 );
#108 = SURFACE_STYLE_USAGE( .BOTH., #157 );
#109 = FACE_OUTER_BOUND( '', #158, .T. );
#110 = FACE_OUTER_BOUND( '', #159, .T. );
#111 = CYLINDRICAL_SURFACE( '', #160, 27.0000000000000 );
#112 = PRODUCT_CONTEXT( '', #20, 'mechanical' );
#113 = PRODUCT_DEFINITION_FORMATION_WITH_SPECIFIED_SOURCE( ' ', 'NONE', #53, .NOT_KNOWN. );
#114 = CLOSED_SHELL( '', ( #46, #40, #44, #42, #36, #48, #38, #50, #52, #34 ) );
#115 = CARTESIAN_POINT( '', ( 0.000000000000000, 0.000000000000000, 0.000000000000000 ) );
#116 = DIRECTION( '', ( 0.000000000000000, 0.000000000000000, 1.00000000000000 ) );
#117 = DIRECTION( '', ( 1.00000000000000, 0.000000000000000, 0.000000000000000 ) );
#118 =  ( LENGTH_UNIT(  )NAMED_UNIT( #62 )SI_UNIT( .MILLI., .METRE. ) );
#119 = SURFACE_SIDE_STYLE( '', ( #162 ) );
#120 = EDGE_LOOP( '', ( #163 ) );
#121 = EDGE_LOOP( '', ( #164 ) );
#122 = AXIS2_PLACEMENT_3D( '', #165, #166, #167 );
#123 = SURFACE_SIDE_STYLE( '', ( #168 ) );
#124 = EDGE_LOOP( '', ( #169, #170, #171, #172 ) );
#125 = AXIS2_PLACEMENT_3D( '', #173, #174, #175 );
#126 = SURFACE_SIDE_STYLE( '', ( #176 ) );
#127 = EDGE_LOOP( '', ( #177, #178, #179, #180 ) );
#128 = AXIS2_PLACEMENT_3D( '', #181, #182, #183 );
#129 = SURFACE_SIDE_STYLE( '', ( #184 ) );
#130 = EDGE_LOOP( '', ( #185 ) );
#131 = EDGE_LOOP( '', ( #186 ) );
#132 = EDGE_LOOP( '', ( #187 ) );
#133 = EDGE_LOOP( '', ( #188 ) );
#134 = EDGE_LOOP( '', ( #189, #190, #191, #192 ) );
#135 = AXIS2_PLACEMENT_3D( '', #193, #194, #195 );
#136 = SURFACE_SIDE_STYLE( '', ( #196 ) );
#137 = EDGE_LOOP( '', ( #197 ) );
#138 = EDGE_LOOP( '', ( #198 ) );
#139 = EDGE_LOOP( '', ( #199 ) );
#140 = EDGE_LOOP( '', ( #200 ) );
#141 = EDGE_LOOP( '', ( #201, #202, #203, #204 ) );
#142 = AXIS2_PLACEMENT_3D( '', #205, #206, #207 );
#143 = SURFACE_SIDE_STYLE( '', ( #208 ) );
#144 = EDGE_LOOP( '', ( #209, #210, #211, #212 ) );
#145 = AXIS2_PLACEMENT_3D( '', #213, #214, #215 );
#146 = SURFACE_SIDE_STYLE( '', ( #216 ) );
#147 = EDGE_LOOP( '', ( #217 ) );
#148 = EDGE_LOOP( '', ( #218 ) );
#149 = AXIS2_PLACEMENT_3D( '', #219, #220, #221 );
#150 = SURFACE_SIDE_STYLE( '', ( #222 ) );
#151 = EDGE_LOOP( '', ( #223, #224, #225, #226 ) );
#152 = AXIS2_PLACEMENT_3D( '', #227, #228, #229 );
#153 = SURFACE_SIDE_STYLE( '', ( #230 ) );
#154 = EDGE_LOOP( '', ( #231 ) );
#155 = EDGE_LOOP( '', ( #232 ) );
#156 = AXIS2_PLACEMENT_3D( '', #233, #234, #235 );
#157 = SURFACE_SIDE_STYLE( '', ( #236 ) );
#158 = EDGE_LOOP( '', ( #237 ) );
#159 = EDGE_LOOP( '', ( #238 ) );
#160 = AXIS2_PLACEMENT_3D( '', #239, #240, #241 );
#162 = SURFACE_STYLE_FILL_AREA( #242 );
#163 = ORIENTED_EDGE( '', *, *, #243, .F. );
#164 = ORIENTED_EDGE( '', *, *, #244, .F. );
#165 = CARTESIAN_POINT( '', ( -346.000000000000, 10.0000000000000, 116.000000000000 ) );
#166 = DIRECTION( '', ( -0.000000000000000, -0.000000000000000, 1.00000000000000 ) );
#167 = DIRECTION( '', ( 0.000000000000000, -1.00000000000000, 0.000000000000000 ) );
#168 = SURFACE_STYLE_FILL_AREA( #245 );
#169 = ORIENTED_EDGE( '', *, *, #246, .T. );
#170 = ORIENTED_EDGE( '', *, *, #247, .F. );
#171 = ORIENTED_EDGE( '', *, *, #248, .F. );
#172 = ORIENTED_EDGE( '', *, *, #249, .T. );
#173 = CARTESIAN_POINT( '', ( -398.000000000000, -42.0000000000000, 116.000000000000 ) );
#174 = DIRECTION( '', ( 5.23032203812103E-017, 1.00000000000000, 0.000000000000000 ) );
#175 = DIRECTION( '', ( -1.00000000000000, 5.23032203812103E-017, 0.000000000000000 ) );
#176 = SURFACE_STYLE_FILL_AREA( #250 );
#177 = ORIENTED_EDGE( '', *, *, #251, .T. );
#178 = ORIENTED_EDGE( '', *, *, #249, .F. );
#179 = ORIENTED_EDGE( '', *, *, #252, .F. );
#180 = ORIENTED_EDGE( '', *, *, #253, .T. );
#181 = CARTESIAN_POINT( '', ( -398.000000000000, 42.0000000000000, 116.000000000000 ) );
#182 = DIRECTION( '', ( 1.00000000000000, 0.000000000000000, 0.000000000000000 ) );
#183 = DIRECTION( '', ( 0.000000000000000, 0.000000000000000, -1.00000000000000 ) );
#184 = SURFACE_STYLE_FILL_AREA( #254 );
#185 = ORIENTED_EDGE( '', *, *, #244, .T. );
#186 = ORIENTED_EDGE( '', *, *, #255, .T. );
#187 = ORIENTED_EDGE( '', *, *, #256, .T. );
#188 = ORIENTED_EDGE( '', *, *, #257, .T. );
#189 = ORIENTED_EDGE( '', *, *, #258, .F. );
#190 = ORIENTED_EDGE( '', *, *, #259, .F. );
#191 = ORIENTED_EDGE( '', *, *, #246, .F. );
#192 = ORIENTED_EDGE( '', *, *, #251, .F. );
#193 = CARTESIAN_POINT( '', ( -398.000000000000, 42.0000000000000, 0.000000000000000 ) );
#194 = DIRECTION( '', ( 0.000000000000000, 0.000000000000000, 1.00000000000000 ) );
#195 = DIRECTION( '', ( 1.00000000000000, 0.000000000000000, 0.000000000000000 ) );
#196 = SURFACE_STYLE_FILL_AREA( #260 );
#197 = ORIENTED_EDGE( '', *, *, #243, .T. );
#198 = ORIENTED_EDGE( '', *, *, #261, .T. );
#199 = ORIENTED_EDGE( '', *, *, #262, .T. );
#200 = ORIENTED_EDGE( '', *, *, #263, .T. );
#201 = ORIENTED_EDGE( '', *, *, #264, .T. );
#202 = ORIENTED_EDGE( '', *, *, #252, .T. );
#203 = ORIENTED_EDGE( '', *, *, #248, .T. );
#204 = ORIENTED_EDGE( '', *, *, #265, .T. );
#205 = CARTESIAN_POINT( '', ( -398.000000000000, 42.0000000000000, 116.000000000000 ) );
#206 = DIRECTION( '', ( 0.000000000000000, 0.000000000000000, 1.00000000000000 ) );
#207 = DIRECTION( '', ( 1.00000000000000, 0.000000000000000, 0.000000000000000 ) );
#208 = SURFACE_STYLE_FILL_AREA( #266 );
#209 = ORIENTED_EDGE( '', *, *, #259, .T. );
#210 = ORIENTED_EDGE( '', *, *, #267, .F. );
#211 = ORIENTED_EDGE( '', *, *, #265, .F. );
#212 = ORIENTED_EDGE( '', *, *, #247, .T. );
#213 = CARTESIAN_POINT( '', ( 398.000000000000, -42.0000000000000, 116.000000000000 ) );
#214 = DIRECTION( '', ( -1.00000000000000, 0.000000000000000, 0.000000000000000 ) );
#215 = DIRECTION( '', ( 0.000000000000000, 0.000000000000000, 1.00000000000000 ) );
#216 = SURFACE_STYLE_FILL_AREA( #268 );
#217 = ORIENTED_EDGE( '', *, *, #263, .F. );
#218 = ORIENTED_EDGE( '', *, *, #257, .F. );
#219 = CARTESIAN_POINT( '', ( -287.000000000000, 10.0000000000000, 116.000000000000 ) );
#220 = DIRECTION( '', ( -0.000000000000000, -0.000000000000000, 1.00000000000000 ) );
#221 = DIRECTION( '', ( 0.000000000000000, -1.00000000000000, 0.000000000000000 ) );
#222 = SURFACE_STYLE_FILL_AREA( #269 );
#223 = ORIENTED_EDGE( '', *, *, #258, .T. );
#224 = ORIENTED_EDGE( '', *, *, #253, .F. );
#225 = ORIENTED_EDGE( '', *, *, #264, .F. );
#226 = ORIENTED_EDGE( '', *, *, #267, .T. );
#227 = CARTESIAN_POINT( '', ( 398.000000000000, 42.0000000000000, 116.000000000000 ) );
#228 = DIRECTION( '', ( -3.48688135874735E-017, -1.00000000000000, 0.000000000000000 ) );
#229 = DIRECTION( '', ( 1.00000000000000, -3.48688135874735E-017, 0.000000000000000 ) );
#230 = SURFACE_STYLE_FILL_AREA( #270 );
#231 = ORIENTED_EDGE( '', *, *, #262, .F. );
#232 = ORIENTED_EDGE( '', *, *, #256, .F. );
#233 = CARTESIAN_POINT( '', ( 287.000000000000, 10.0000000000000, 116.000000000000 ) );
#234 = DIRECTION( '', ( -0.000000000000000, -0.000000000000000, 1.00000000000000 ) );
#235 = DIRECTION( '', ( 0.000000000000000, -1.00000000000000, 0.000000000000000 ) );
#236 = SURFACE_STYLE_FILL_AREA( #271 );
#237 = ORIENTED_EDGE( '', *, *, #261, .F. );
#238 = ORIENTED_EDGE( '', *, *, #255, .F. );
#239 = CARTESIAN_POINT( '', ( 346.000000000000, 10.0000000000000, 116.000000000000 ) );
#240 = DIRECTION( '', ( -0.000000000000000, -0.000000000000000, 1.00000000000000 ) );
#241 = DIRECTION( '', ( 0.000000000000000, -1.00000000000000, 0.000000000000000 ) );
#242 = FILL_AREA_STYLE( '', ( #272 ) );
#243 = EDGE_CURVE( '', #273, #273, #274, .T. );
#244 = EDGE_CURVE( '', #275, #275, #276, .T. );
#245 = FILL_AREA_STYLE( '', ( #277 ) );
#246 = EDGE_CURVE( '', #278, #279, #280, .T. );
#247 = EDGE_CURVE( '', #281, #279, #282, .T. );
#248 = EDGE_CURVE( '', #283, #281, #284, .T. );
#249 = EDGE_CURVE( '', #283, #278, #285, .T. );
#250 = FILL_AREA_STYLE( '', ( #286 ) );
#251 = EDGE_CURVE( '', #287, #278, #288, .T. );
#252 = EDGE_CURVE( '', #289, #283, #290, .T. );
#253 = EDGE_CURVE( '', #289, #287, #291, .T. );
#254 = FILL_AREA_STYLE( '', ( #292 ) );
#255 = EDGE_CURVE( '', #293, #293, #294, .T. );
#256 = EDGE_CURVE( '', #295, #295, #296, .T. );
#257 = EDGE_CURVE( '', #297, #297, #298, .T. );
#258 = EDGE_CURVE( '', #299, #287, #300, .T. );
#259 = EDGE_CURVE( '', #279, #299, #301, .T. );
#260 = FILL_AREA_STYLE( '', ( #302 ) );
#261 = EDGE_CURVE( '', #303, #303, #304, .T. );
#262 = EDGE_CURVE( '', #305, #305, #306, .T. );
#263 = EDGE_CURVE( '', #307, #307, #308, .T. );
#264 = EDGE_CURVE( '', #309, #289, #310, .T. );
#265 = EDGE_CURVE( '', #281, #309, #311, .T. );
#266 = FILL_AREA_STYLE( '', ( #312 ) );
#267 = EDGE_CURVE( '', #309, #299, #313, .T. );
#268 = FILL_AREA_STYLE( '', ( #314 ) );
#269 = FILL_AREA_STYLE( '', ( #315 ) );
#270 = FILL_AREA_STYLE( '', ( #316 ) );
#271 = FILL_AREA_STYLE( '', ( #317 ) );
#272 = FILL_AREA_STYLE_COLOUR( '', #318 );
#273 = VERTEX_POINT( '', #319 );
#274 = CIRCLE( '', #320, 27.0000000000000 );
#275 = VERTEX_POINT( '', #321 );
#276 = CIRCLE( '', #322, 27.0000000000000 );
#277 = FILL_AREA_STYLE_COLOUR( '', #323 );
#278 = VERTEX_POINT( '', #324 );
#279 = VERTEX_POINT( '', #325 );
#280 = LINE( '', #326, #327 );
#281 = VERTEX_POINT( '', #328 );
#282 = LINE( '', #329, #330 );
#283 = VERTEX_POINT( '', #331 );
#284 = LINE( '', #332, #333 );
#285 = LINE( '', #334, #335 );
#286 = FILL_AREA_STYLE_COLOUR( '', #336 );
#287 = VERTEX_POINT( '', #337 );
#288 = LINE( '', #338, #339 );
#289 = VERTEX_POINT( '', #340 );
#290 = LINE( '', #341, #342 );
#291 = LINE( '', #343, #344 );
#292 = FILL_AREA_STYLE_COLOUR( '', #345 );
#293 = VERTEX_POINT( '', #346 );
#294 = CIRCLE( '', #347, 27.0000000000000 );
#295 = VERTEX_POINT( '', #348 );
#296 = CIRCLE( '', #349, 11.0000000000000 );
#297 = VERTEX_POINT( '', #350 );
#298 = CIRCLE( '', #351, 11.0000000000000 );
#299 = VERTEX_POINT( '', #352 );
#300 = LINE( '', #353, #354 );
#301 = LINE( '', #355, #356 );
#302 = FILL_AREA_STYLE_COLOUR( '', #357 );
#303 = VERTEX_POINT( '', #358 );
#304 = CIRCLE( '', #359, 27.0000000000000 );
#305 = VERTEX_POINT( '', #360 );
#306 = CIRCLE( '', #361, 11.0000000000000 );
#307 = VERTEX_POINT( '', #362 );
#308 = CIRCLE( '', #363, 11.0000000000000 );
#309 = VERTEX_POINT( '', #364 );
#310 = LINE( '', #365, #366 );
#311 = LINE( '', #367, #368 );
#312 = FILL_AREA_STYLE_COLOUR( '', #369 );
#313 = LINE( '', #370, #371 );
#314 = FILL_AREA_STYLE_COLOUR( '', #372 );
#315 = FILL_AREA_STYLE_COLOUR( '', #373 );
#316 = FILL_AREA_STYLE_COLOUR( '', #374 );
#317 = FILL_AREA_STYLE_COLOUR( '', #375 );
#318 = COLOUR_RGB( '', 0.752941191196442, 0.752941191196442, 0.752941191196442 );
#319 = CARTESIAN_POINT( '', ( -346.000000000000, -17.0000000000000, 116.000000000000 ) );
#320 = AXIS2_PLACEMENT_3D( '', #376, #377, #378 );
#321 = CARTESIAN_POINT( '', ( -319.000000000000, 10.0000000000000, 0.000000000000000 ) );
#322 = AXIS2_PLACEMENT_3D( '', #379, #380, #381 );
#323 = COLOUR_RGB( '', 0.752941191196442, 0.752941191196442, 0.752941191196442 );
#324 = CARTESIAN_POINT( '', ( -398.000000000000, -42.0000000000000, 0.000000000000000 ) );
#325 = CARTESIAN_POINT( '', ( 398.000000000000, -42.0000000000000, 0.000000000000000 ) );
#326 = CARTESIAN_POINT( '', ( -398.000000000000, -42.0000000000000, 0.000000000000000 ) );
#327 = VECTOR( '', #382, 1000.00000000000 );
#328 = CARTESIAN_POINT( '', ( 398.000000000000, -42.0000000000000, 116.000000000000 ) );
#329 = CARTESIAN_POINT( '', ( 398.000000000000, -42.0000000000000, 116.000000000000 ) );
#330 = VECTOR( '', #383, 1000.00000000000 );
#331 = CARTESIAN_POINT( '', ( -398.000000000000, -42.0000000000000, 116.000000000000 ) );
#332 = CARTESIAN_POINT( '', ( -398.000000000000, -42.0000000000000, 116.000000000000 ) );
#333 = VECTOR( '', #384, 1000.00000000000 );
#334 = CARTESIAN_POINT( '', ( -398.000000000000, -42.0000000000000, 116.000000000000 ) );
#335 = VECTOR( '', #385, 1000.00000000000 );
#336 = COLOUR_RGB( '', 0.752941191196442, 0.752941191196442, 0.752941191196442 );
#337 = CARTESIAN_POINT( '', ( -398.000000000000, 42.0000000000000, 0.000000000000000 ) );
#338 = CARTESIAN_POINT( '', ( -398.000000000000, 42.0000000000000, 0.000000000000000 ) );
#339 = VECTOR( '', #386, 1000.00000000000 );
#340 = CARTESIAN_POINT( '', ( -398.000000000000, 42.0000000000000, 116.000000000000 ) );
#341 = CARTESIAN_POINT( '', ( -398.000000000000, 42.0000000000000, 116.000000000000 ) );
#342 = VECTOR( '', #387, 1000.00000000000 );
#343 = CARTESIAN_POINT( '', ( -398.000000000000, 42.0000000000000, 116.000000000000 ) );
#344 = VECTOR( '', #388, 1000.00000000000 );
#345 = COLOUR_RGB( '', 0.752941191196442, 0.752941191196442, 0.752941191196442 );
#346 = CARTESIAN_POINT( '', ( 373.000000000000, 10.0000000000000, 0.000000000000000 ) );
#347 = AXIS2_PLACEMENT_3D( '', #389, #390, #391 );
#348 = CARTESIAN_POINT( '', ( 298.000000000000, 10.0000000000000, 0.000000000000000 ) );
#349 = AXIS2_PLACEMENT_3D( '', #392, #393, #394 );
#350 = CARTESIAN_POINT( '', ( -276.000000000000, 10.0000000000000, 0.000000000000000 ) );
#351 = AXIS2_PLACEMENT_3D( '', #395, #396, #397 );
#352 = CARTESIAN_POINT( '', ( 398.000000000000, 42.0000000000000, 0.000000000000000 ) );
#353 = CARTESIAN_POINT( '', ( 398.000000000000, 42.0000000000000, 0.000000000000000 ) );
#354 = VECTOR( '', #398, 1000.00000000000 );
#355 = CARTESIAN_POINT( '', ( 398.000000000000, -42.0000000000000, 0.000000000000000 ) );
#356 = VECTOR( '', #399, 1000.00000000000 );
#357 = COLOUR_RGB( '', 0.752941191196442, 0.752941191196442, 0.752941191196442 );
#358 = CARTESIAN_POINT( '', ( 346.000000000000, -17.0000000000000, 116.000000000000 ) );
#359 = AXIS2_PLACEMENT_3D( '', #400, #401, #402 );
#360 = CARTESIAN_POINT( '', ( 287.000000000000, -0.999999999999999, 116.000000000000 ) );
#361 = AXIS2_PLACEMENT_3D( '', #403, #404, #405 );
#362 = CARTESIAN_POINT( '', ( -287.000000000000, -0.999999999999999, 116.000000000000 ) );
#363 = AXIS2_PLACEMENT_3D( '', #406, #407, #408 );
#364 = CARTESIAN_POINT( '', ( 398.000000000000, 42.0000000000000, 116.000000000000 ) );
#365 = CARTESIAN_POINT( '', ( 398.000000000000, 42.0000000000000, 116.000000000000 ) );
#366 = VECTOR( '', #409, 1000.00000000000 );
#367 = CARTESIAN_POINT( '', ( 398.000000000000, -42.0000000000000, 116.000000000000 ) );
#368 = VECTOR( '', #410, 1000.00000000000 );
#369 = COLOUR_RGB( '', 0.752941191196442, 0.752941191196442, 0.752941191196442 );
#370 = CARTESIAN_POINT( '', ( 398.000000000000, 42.0000000000000, 116.000000000000 ) );
#371 = VECTOR( '', #411, 1000.00000000000 );
#372 = COLOUR_RGB( '', 0.752941191196442, 0.752941191196442, 0.752941191196442 );
#373 = COLOUR_RGB( '', 0.752941191196442, 0.752941191196442, 0.752941191196442 );
#374 = COLOUR_RGB( '', 0.752941191196442, 0.752941191196442, 0.752941191196442 );
#375 = COLOUR_RGB( '', 0.752941191196442, 0.752941191196442, 0.752941191196442 );
#376 = CARTESIAN_POINT( '', ( -346.000000000000, 10.0000000000000, 116.000000000000 ) );
#377 = DIRECTION( '', ( 0.000000000000000, 0.000000000000000, -1.00000000000000 ) );
#378 = DIRECTION( '', ( 0.000000000000000, -1.00000000000000, 0.000000000000000 ) );
#379 = CARTESIAN_POINT( '', ( -346.000000000000, 10.0000000000000, 0.000000000000000 ) );
#380 = DIRECTION( '', ( 0.000000000000000, 0.000000000000000, 1.00000000000000 ) );
#381 = DIRECTION( '', ( 1.00000000000000, 0.000000000000000, 0.000000000000000 ) );
#382 = DIRECTION( '', ( 1.00000000000000, -5.23032203812103E-017, 0.000000000000000 ) );
#383 = DIRECTION( '', ( 0.000000000000000, 0.000000000000000, -1.00000000000000 ) );
#384 = DIRECTION( '', ( 1.00000000000000, -5.23032203812103E-017, 0.000000000000000 ) );
#385 = DIRECTION( '', ( 0.000000000000000, 0.000000000000000, -1.00000000000000 ) );
#386 = DIRECTION( '', ( 0.000000000000000, -1.00000000000000, 0.000000000000000 ) );
#387 = DIRECTION( '', ( 0.000000000000000, -1.00000000000000, 0.000000000000000 ) );
#388 = DIRECTION( '', ( 0.000000000000000, 0.000000000000000, -1.00000000000000 ) );
#389 = CARTESIAN_POINT( '', ( 346.000000000000, 10.0000000000000, 0.000000000000000 ) );
#390 = DIRECTION( '', ( 0.000000000000000, 0.000000000000000, 1.00000000000000 ) );
#391 = DIRECTION( '', ( 1.00000000000000, 0.000000000000000, 0.000000000000000 ) );
#392 = CARTESIAN_POINT( '', ( 287.000000000000, 10.0000000000000, 0.000000000000000 ) );
#393 = DIRECTION( '', ( 0.000000000000000, 0.000000000000000, 1.00000000000000 ) );
#394 = DIRECTION( '', ( 1.00000000000000, 0.000000000000000, 0.000000000000000 ) );
#395 = CARTESIAN_POINT( '', ( -287.000000000000, 10.0000000000000, 0.000000000000000 ) );
#396 = DIRECTION( '', ( 0.000000000000000, 0.000000000000000, 1.00000000000000 ) );
#397 = DIRECTION( '', ( 1.00000000000000, 0.000000000000000, 0.000000000000000 ) );
#398 = DIRECTION( '', ( -1.00000000000000, 3.48688135874735E-017, 0.000000000000000 ) );
#399 = DIRECTION( '', ( 0.000000000000000, 1.00000000000000, 0.000000000000000 ) );
#400 = CARTESIAN_POINT( '', ( 346.000000000000, 10.0000000000000, 116.000000000000 ) );
#401 = DIRECTION( '', ( 0.000000000000000, 0.000000000000000, -1.00000000000000 ) );
#402 = DIRECTION( '', ( 0.000000000000000, -1.00000000000000, 0.000000000000000 ) );
#403 = CARTESIAN_POINT( '', ( 287.000000000000, 10.0000000000000, 116.000000000000 ) );
#404 = DIRECTION( '', ( 0.000000000000000, 0.000000000000000, -1.00000000000000 ) );
#405 = DIRECTION( '', ( 0.000000000000000, -1.00000000000000, 0.000000000000000 ) );
#406 = CARTESIAN_POINT( '', ( -287.000000000000, 10.0000000000000, 116.000000000000 ) );
#407 = DIRECTION( '', ( 0.000000000000000, 0.000000000000000, -1.00000000000000 ) );
#408 = DIRECTION( '', ( 0.000000000000000, -1.00000000000000, 0.000000000000000 ) );
#409 = DIRECTION( '', ( -1.00000000000000, 3.48688135874735E-017, 0.000000000000000 ) );
#410 = DIRECTION( '', ( 0.000000000000000, 1.00000000000000, 0.000000000000000 ) );
#411 = DIRECTION( '', ( 0.000000000000000, 0.000000000000000, -1.00000000000000 ) );
ENDSEC;
END-ISO-10303-21;
