ISO-10303-21;
HEADER;
FILE_DESCRIPTION( ( 'Unknown' ), '1' );
FILE_NAME( 'M:/Piezas_3D/Placas_Par/G2/OS_G2_696x996x136_.stp', 'Unknown', ( 'Unknown' ), ( 'Unknown' ), 'PSStep 16.0.42', 'Unknown', '  ' );
FILE_SCHEMA( ( 'AUTOMOTIVE_DESIGN { 1 0 10303 214 1 1 1 1 }' ) );
ENDSEC;
DATA;
#1 = MECHANICAL_DESIGN_GEOMETRIC_PRESENTATION_REPRESENTATION( ' ', ( #10, #11, #12, #13, #14, #15, #16, #17, #18, #19 ), #6 );
#2 = PRODUCT_DEFINITION_CONTEXT( '', #20, 'design' );
#3 = APPLICATION_PROTOCOL_DEFINITION( 'international standard', 'automotive_design', 2001, #20 );
#4 = PRODUCT_CATEGORY_RELATIONSHIP( 'NONE', 'NONE', #21, #22 );
#5 = SHAPE_DEFINITION_REPRESENTATION( #23, #24 );
#6 =  ( GEOMETRIC_REPRESENTATION_CONTEXT( 3 )GLOBAL_UNCERTAINTY_ASSIGNED_CONTEXT( ( #27 ) )GLOBAL_UNIT_ASSIGNED_CONTEXT( ( #29, #30, #31 ) )REPRESENTATION_CONTEXT( 'NONE', 'WORKSPACE' ) );
#10 = STYLED_ITEM( '', ( #33 ), #34 );
#11 = STYLED_ITEM( '', ( #35 ), #36 );
#12 = STYLED_ITEM( '', ( #37 ), #38 );
#13 = STYLED_ITEM( '', ( #39 ), #40 );
#14 = STYLED_ITEM( '', ( #41 ), #42 );
#15 = STYLED_ITEM( '', ( #43 ), #44 );
#16 = STYLED_ITEM( '', ( #45 ), #46 );
#17 = STYLED_ITEM( '', ( #47 ), #48 );
#18 = STYLED_ITEM( '', ( #49 ), #50 );
#19 = STYLED_ITEM( '', ( #51 ), #52 );
#20 = APPLICATION_CONTEXT( 'core data for automotive mechanical design processes' );
#21 = PRODUCT_CATEGORY( 'part', 'NONE' );
#22 = PRODUCT_RELATED_PRODUCT_CATEGORY( 'detail', ' ', ( #53 ) );
#23 = PRODUCT_DEFINITION_SHAPE( 'NONE', 'NONE', #54 );
#24 = ADVANCED_BREP_SHAPE_REPRESENTATION( '1', ( #55, #56 ), #6 );
#27 = UNCERTAINTY_MEASURE_WITH_UNIT( LENGTH_MEASURE( 0.00100000000000000 ), #29, '', '' );
#29 =  ( CONVERSION_BASED_UNIT( 'MILLIMETRE', #59 )LENGTH_UNIT(  )NAMED_UNIT( #62 ) );
#30 =  ( NAMED_UNIT( #64 )PLANE_ANGLE_UNIT(  )SI_UNIT( $, .RADIAN. ) );
#31 =  ( NAMED_UNIT( #64 )SI_UNIT( $, .STERADIAN. )SOLID_ANGLE_UNIT(  ) );
#33 = PRESENTATION_STYLE_ASSIGNMENT( ( #70 ) );
#34 = ADVANCED_FACE( '', ( #71, #72, #73, #74, #75 ), #76, .F. );
#35 = PRESENTATION_STYLE_ASSIGNMENT( ( #77 ) );
#36 = ADVANCED_FACE( '', ( #78 ), #79, .F. );
#37 = PRESENTATION_STYLE_ASSIGNMENT( ( #80 ) );
#38 = ADVANCED_FACE( '', ( #81 ), #82, .F. );
#39 = PRESENTATION_STYLE_ASSIGNMENT( ( #83 ) );
#40 = ADVANCED_FACE( '', ( #84 ), #85, .F. );
#41 = PRESENTATION_STYLE_ASSIGNMENT( ( #86 ) );
#42 = ADVANCED_FACE( '', ( #87, #88 ), #89, .F. );
#43 = PRESENTATION_STYLE_ASSIGNMENT( ( #90 ) );
#44 = ADVANCED_FACE( '', ( #91, #92, #93, #94, #95 ), #96, .T. );
#45 = PRESENTATION_STYLE_ASSIGNMENT( ( #97 ) );
#46 = ADVANCED_FACE( '', ( #98, #99 ), #100, .F. );
#47 = PRESENTATION_STYLE_ASSIGNMENT( ( #101 ) );
#48 = ADVANCED_FACE( '', ( #102, #103 ), #104, .F. );
#49 = PRESENTATION_STYLE_ASSIGNMENT( ( #105 ) );
#50 = ADVANCED_FACE( '', ( #106, #107 ), #108, .F. );
#51 = PRESENTATION_STYLE_ASSIGNMENT( ( #109 ) );
#52 = ADVANCED_FACE( '', ( #110 ), #111, .F. );
#53 = PRODUCT( '1', '1', 'PART-1-DESC', ( #112 ) );
#54 = PRODUCT_DEFINITION( 'NONE', 'NONE', #113, #2 );
#55 = MANIFOLD_SOLID_BREP( '1', #114 );
#56 = AXIS2_PLACEMENT_3D( '', #115, #116, #117 );
#59 = LENGTH_MEASURE_WITH_UNIT( LENGTH_MEASURE( 1.00000000000000 ), #118 );
#62 = DIMENSIONAL_EXPONENTS( 1.00000000000000, 0.000000000000000, 0.000000000000000, 0.000000000000000, 0.000000000000000, 0.000000000000000, 0.000000000000000 );
#64 = DIMENSIONAL_EXPONENTS( 0.000000000000000, 0.000000000000000, 0.000000000000000, 0.000000000000000, 0.000000000000000, 0.000000000000000, 0.000000000000000 );
#70 = SURFACE_STYLE_USAGE( .BOTH., #119 );
#71 = FACE_BOUND( '', #120, .T. );
#72 = FACE_BOUND( '', #121, .T. );
#73 = FACE_BOUND( '', #122, .T. );
#74 = FACE_BOUND( '', #123, .T. );
#75 = FACE_OUTER_BOUND( '', #124, .T. );
#76 = PLANE( '', #125 );
#77 = SURFACE_STYLE_USAGE( .BOTH., #126 );
#78 = FACE_OUTER_BOUND( '', #127, .T. );
#79 = PLANE( '', #128 );
#80 = SURFACE_STYLE_USAGE( .BOTH., #129 );
#81 = FACE_OUTER_BOUND( '', #130, .T. );
#82 = PLANE( '', #131 );
#83 = SURFACE_STYLE_USAGE( .BOTH., #132 );
#84 = FACE_OUTER_BOUND( '', #133, .T. );
#85 = PLANE( '', #134 );
#86 = SURFACE_STYLE_USAGE( .BOTH., #135 );
#87 = FACE_OUTER_BOUND( '', #136, .T. );
#88 = FACE_OUTER_BOUND( '', #137, .T. );
#89 = CYLINDRICAL_SURFACE( '', #138, 11.0000000000000 );
#90 = SURFACE_STYLE_USAGE( .BOTH., #139 );
#91 = FACE_BOUND( '', #140, .T. );
#92 = FACE_BOUND( '', #141, .T. );
#93 = FACE_BOUND( '', #142, .T. );
#94 = FACE_BOUND( '', #143, .T. );
#95 = FACE_OUTER_BOUND( '', #144, .T. );
#96 = PLANE( '', #145 );
#97 = SURFACE_STYLE_USAGE( .BOTH., #146 );
#98 = FACE_OUTER_BOUND( '', #147, .T. );
#99 = FACE_OUTER_BOUND( '', #148, .T. );
#100 = CYLINDRICAL_SURFACE( '', #149, 11.0000000000000 );
#101 = SURFACE_STYLE_USAGE( .BOTH., #150 );
#102 = FACE_OUTER_BOUND( '', #151, .T. );
#103 = FACE_OUTER_BOUND( '', #152, .T. );
#104 = CYLINDRICAL_SURFACE( '', #153, 27.0000000000000 );
#105 = SURFACE_STYLE_USAGE( .BOTH., #154 );
#106 = FACE_OUTER_BOUND( '', #155, .T. );
#107 = FACE_OUTER_BOUND( '', #156, .T. );
#108 = CYLINDRICAL_SURFACE( '', #157, 27.0000000000000 );
#109 = SURFACE_STYLE_USAGE( .BOTH., #158 );
#110 = FACE_OUTER_BOUND( '', #159, .T. );
#111 = PLANE( '', #160 );
#112 = PRODUCT_CONTEXT( '', #20, 'mechanical' );
#113 = PRODUCT_DEFINITION_FORMATION_WITH_SPECIFIED_SOURCE( ' ', 'NONE', #53, .NOT_KNOWN. );
#114 = CLOSED_SHELL( '', ( #46, #34, #52, #44, #40, #36, #38, #42, #50, #48 ) );
#115 = CARTESIAN_POINT( '', ( 0.000000000000000, 0.000000000000000, 0.000000000000000 ) );
#116 = DIRECTION( '', ( 0.000000000000000, 0.000000000000000, 1.00000000000000 ) );
#117 = DIRECTION( '', ( 1.00000000000000, 0.000000000000000, 0.000000000000000 ) );
#118 =  ( LENGTH_UNIT(  )NAMED_UNIT( #62 )SI_UNIT( .MILLI., .METRE. ) );
#119 = SURFACE_SIDE_STYLE( '', ( #162 ) );
#120 = EDGE_LOOP( '', ( #163 ) );
#121 = EDGE_LOOP( '', ( #164 ) );
#122 = EDGE_LOOP( '', ( #165 ) );
#123 = EDGE_LOOP( '', ( #166 ) );
#124 = EDGE_LOOP( '', ( #167, #168, #169, #170 ) );
#125 = AXIS2_PLACEMENT_3D( '', #171, #172, #173 );
#126 = SURFACE_SIDE_STYLE( '', ( #174 ) );
#127 = EDGE_LOOP( '', ( #175, #176, #177, #178 ) );
#128 = AXIS2_PLACEMENT_3D( '', #179, #180, #181 );
#129 = SURFACE_SIDE_STYLE( '', ( #182 ) );
#130 = EDGE_LOOP( '', ( #183, #184, #185, #186 ) );
#131 = AXIS2_PLACEMENT_3D( '', #187, #188, #189 );
#132 = SURFACE_SIDE_STYLE( '', ( #190 ) );
#133 = EDGE_LOOP( '', ( #191, #192, #193, #194 ) );
#134 = AXIS2_PLACEMENT_3D( '', #195, #196, #197 );
#135 = SURFACE_SIDE_STYLE( '', ( #198 ) );
#136 = EDGE_LOOP( '', ( #199 ) );
#137 = EDGE_LOOP( '', ( #200 ) );
#138 = AXIS2_PLACEMENT_3D( '', #201, #202, #203 );
#139 = SURFACE_SIDE_STYLE( '', ( #204 ) );
#140 = EDGE_LOOP( '', ( #205 ) );
#141 = EDGE_LOOP( '', ( #206 ) );
#142 = EDGE_LOOP( '', ( #207 ) );
#143 = EDGE_LOOP( '', ( #208 ) );
#144 = EDGE_LOOP( '', ( #209, #210, #211, #212 ) );
#145 = AXIS2_PLACEMENT_3D( '', #213, #214, #215 );
#146 = SURFACE_SIDE_STYLE( '', ( #216 ) );
#147 = EDGE_LOOP( '', ( #217 ) );
#148 = EDGE_LOOP( '', ( #218 ) );
#149 = AXIS2_PLACEMENT_3D( '', #219, #220, #221 );
#150 = SURFACE_SIDE_STYLE( '', ( #222 ) );
#151 = EDGE_LOOP( '', ( #223 ) );
#152 = EDGE_LOOP( '', ( #224 ) );
#153 = AXIS2_PLACEMENT_3D( '', #225, #226, #227 );
#154 = SURFACE_SIDE_STYLE( '', ( #228 ) );
#155 = EDGE_LOOP( '', ( #229 ) );
#156 = EDGE_LOOP( '', ( #230 ) );
#157 = AXIS2_PLACEMENT_3D( '', #231, #232, #233 );
#158 = SURFACE_SIDE_STYLE( '', ( #234 ) );
#159 = EDGE_LOOP( '', ( #235, #236, #237, #238 ) );
#160 = AXIS2_PLACEMENT_3D( '', #239, #240, #241 );
#162 = SURFACE_STYLE_FILL_AREA( #242 );
#163 = ORIENTED_EDGE( '', *, *, #243, .T. );
#164 = ORIENTED_EDGE( '', *, *, #244, .T. );
#165 = ORIENTED_EDGE( '', *, *, #245, .T. );
#166 = ORIENTED_EDGE( '', *, *, #246, .T. );
#167 = ORIENTED_EDGE( '', *, *, #247, .F. );
#168 = ORIENTED_EDGE( '', *, *, #248, .F. );
#169 = ORIENTED_EDGE( '', *, *, #249, .F. );
#170 = ORIENTED_EDGE( '', *, *, #250, .F. );
#171 = CARTESIAN_POINT( '', ( -498.000000000000, 42.0000000000000, 0.000000000000000 ) );
#172 = DIRECTION( '', ( 0.000000000000000, 0.000000000000000, 1.00000000000000 ) );
#173 = DIRECTION( '', ( 1.00000000000000, 0.000000000000000, 0.000000000000000 ) );
#174 = SURFACE_STYLE_FILL_AREA( #251 );
#175 = ORIENTED_EDGE( '', *, *, #247, .T. );
#176 = ORIENTED_EDGE( '', *, *, #252, .F. );
#177 = ORIENTED_EDGE( '', *, *, #253, .F. );
#178 = ORIENTED_EDGE( '', *, *, #254, .T. );
#179 = CARTESIAN_POINT( '', ( 498.000000000000, 42.0000000000000, 136.000000000000 ) );
#180 = DIRECTION( '', ( -3.48338047384901E-017, -1.00000000000000, 0.000000000000000 ) );
#181 = DIRECTION( '', ( 1.00000000000000, -3.48338047384901E-017, 0.000000000000000 ) );
#182 = SURFACE_STYLE_FILL_AREA( #255 );
#183 = ORIENTED_EDGE( '', *, *, #250, .T. );
#184 = ORIENTED_EDGE( '', *, *, #256, .F. );
#185 = ORIENTED_EDGE( '', *, *, #257, .F. );
#186 = ORIENTED_EDGE( '', *, *, #252, .T. );
#187 = CARTESIAN_POINT( '', ( -498.000000000000, 42.0000000000000, 136.000000000000 ) );
#188 = DIRECTION( '', ( 1.00000000000000, 0.000000000000000, 0.000000000000000 ) );
#189 = DIRECTION( '', ( 0.000000000000000, 0.000000000000000, -1.00000000000000 ) );
#190 = SURFACE_STYLE_FILL_AREA( #258 );
#191 = ORIENTED_EDGE( '', *, *, #249, .T. );
#192 = ORIENTED_EDGE( '', *, *, #259, .F. );
#193 = ORIENTED_EDGE( '', *, *, #260, .F. );
#194 = ORIENTED_EDGE( '', *, *, #256, .T. );
#195 = CARTESIAN_POINT( '', ( -498.000000000000, -42.0000000000000, 136.000000000000 ) );
#196 = DIRECTION( '', ( 5.57340875815842E-017, 1.00000000000000, 0.000000000000000 ) );
#197 = DIRECTION( '', ( -1.00000000000000, 5.57340875815842E-017, 0.000000000000000 ) );
#198 = SURFACE_STYLE_FILL_AREA( #261 );
#199 = ORIENTED_EDGE( '', *, *, #262, .F. );
#200 = ORIENTED_EDGE( '', *, *, #245, .F. );
#201 = CARTESIAN_POINT( '', ( 387.000000000000, 10.0000000000000, 136.000000000000 ) );
#202 = DIRECTION( '', ( -0.000000000000000, -0.000000000000000, 1.00000000000000 ) );
#203 = DIRECTION( '', ( 0.000000000000000, -1.00000000000000, 0.000000000000000 ) );
#204 = SURFACE_STYLE_FILL_AREA( #263 );
#205 = ORIENTED_EDGE( '', *, *, #264, .T. );
#206 = ORIENTED_EDGE( '', *, *, #265, .T. );
#207 = ORIENTED_EDGE( '', *, *, #262, .T. );
#208 = ORIENTED_EDGE( '', *, *, #266, .T. );
#209 = ORIENTED_EDGE( '', *, *, #253, .T. );
#210 = ORIENTED_EDGE( '', *, *, #257, .T. );
#211 = ORIENTED_EDGE( '', *, *, #260, .T. );
#212 = ORIENTED_EDGE( '', *, *, #267, .T. );
#213 = CARTESIAN_POINT( '', ( -498.000000000000, 42.0000000000000, 136.000000000000 ) );
#214 = DIRECTION( '', ( 0.000000000000000, 0.000000000000000, 1.00000000000000 ) );
#215 = DIRECTION( '', ( 1.00000000000000, 0.000000000000000, 0.000000000000000 ) );
#216 = SURFACE_STYLE_FILL_AREA( #268 );
#217 = ORIENTED_EDGE( '', *, *, #266, .F. );
#218 = ORIENTED_EDGE( '', *, *, #246, .F. );
#219 = CARTESIAN_POINT( '', ( -387.000000000000, 10.0000000000000, 136.000000000000 ) );
#220 = DIRECTION( '', ( -0.000000000000000, -0.000000000000000, 1.00000000000000 ) );
#221 = DIRECTION( '', ( 0.000000000000000, -1.00000000000000, 0.000000000000000 ) );
#222 = SURFACE_STYLE_FILL_AREA( #269 );
#223 = ORIENTED_EDGE( '', *, *, #264, .F. );
#224 = ORIENTED_EDGE( '', *, *, #243, .F. );
#225 = CARTESIAN_POINT( '', ( -446.000000000000, 10.0000000000000, 136.000000000000 ) );
#226 = DIRECTION( '', ( -0.000000000000000, -0.000000000000000, 1.00000000000000 ) );
#227 = DIRECTION( '', ( 0.000000000000000, -1.00000000000000, 0.000000000000000 ) );
#228 = SURFACE_STYLE_FILL_AREA( #270 );
#229 = ORIENTED_EDGE( '', *, *, #265, .F. );
#230 = ORIENTED_EDGE( '', *, *, #244, .F. );
#231 = CARTESIAN_POINT( '', ( 446.000000000000, 10.0000000000000, 136.000000000000 ) );
#232 = DIRECTION( '', ( -0.000000000000000, -0.000000000000000, 1.00000000000000 ) );
#233 = DIRECTION( '', ( 0.000000000000000, -1.00000000000000, 0.000000000000000 ) );
#234 = SURFACE_STYLE_FILL_AREA( #271 );
#235 = ORIENTED_EDGE( '', *, *, #248, .T. );
#236 = ORIENTED_EDGE( '', *, *, #254, .F. );
#237 = ORIENTED_EDGE( '', *, *, #267, .F. );
#238 = ORIENTED_EDGE( '', *, *, #259, .T. );
#239 = CARTESIAN_POINT( '', ( 498.000000000000, -42.0000000000000, 136.000000000000 ) );
#240 = DIRECTION( '', ( -1.00000000000000, 0.000000000000000, 0.000000000000000 ) );
#241 = DIRECTION( '', ( 0.000000000000000, 0.000000000000000, 1.00000000000000 ) );
#242 = FILL_AREA_STYLE( '', ( #272 ) );
#243 = EDGE_CURVE( '', #273, #273, #274, .T. );
#244 = EDGE_CURVE( '', #275, #275, #276, .T. );
#245 = EDGE_CURVE( '', #277, #277, #278, .T. );
#246 = EDGE_CURVE( '', #279, #279, #280, .T. );
#247 = EDGE_CURVE( '', #281, #282, #283, .T. );
#248 = EDGE_CURVE( '', #284, #281, #285, .T. );
#249 = EDGE_CURVE( '', #286, #284, #287, .T. );
#250 = EDGE_CURVE( '', #282, #286, #288, .T. );
#251 = FILL_AREA_STYLE( '', ( #289 ) );
#252 = EDGE_CURVE( '', #290, #282, #291, .T. );
#253 = EDGE_CURVE( '', #292, #290, #293, .T. );
#254 = EDGE_CURVE( '', #292, #281, #294, .T. );
#255 = FILL_AREA_STYLE( '', ( #295 ) );
#256 = EDGE_CURVE( '', #296, #286, #297, .T. );
#257 = EDGE_CURVE( '', #290, #296, #298, .T. );
#258 = FILL_AREA_STYLE( '', ( #299 ) );
#259 = EDGE_CURVE( '', #300, #284, #301, .T. );
#260 = EDGE_CURVE( '', #296, #300, #302, .T. );
#261 = FILL_AREA_STYLE( '', ( #303 ) );
#262 = EDGE_CURVE( '', #304, #304, #305, .T. );
#263 = FILL_AREA_STYLE( '', ( #306 ) );
#264 = EDGE_CURVE( '', #307, #307, #308, .T. );
#265 = EDGE_CURVE( '', #309, #309, #310, .T. );
#266 = EDGE_CURVE( '', #311, #311, #312, .T. );
#267 = EDGE_CURVE( '', #300, #292, #313, .T. );
#268 = FILL_AREA_STYLE( '', ( #314 ) );
#269 = FILL_AREA_STYLE( '', ( #315 ) );
#270 = FILL_AREA_STYLE( '', ( #316 ) );
#271 = FILL_AREA_STYLE( '', ( #317 ) );
#272 = FILL_AREA_STYLE_COLOUR( '', #318 );
#273 = VERTEX_POINT( '', #319 );
#274 = CIRCLE( '', #320, 27.0000000000000 );
#275 = VERTEX_POINT( '', #321 );
#276 = CIRCLE( '', #322, 27.0000000000000 );
#277 = VERTEX_POINT( '', #323 );
#278 = CIRCLE( '', #324, 11.0000000000000 );
#279 = VERTEX_POINT( '', #325 );
#280 = CIRCLE( '', #326, 11.0000000000000 );
#281 = VERTEX_POINT( '', #327 );
#282 = VERTEX_POINT( '', #328 );
#283 = LINE( '', #329, #330 );
#284 = VERTEX_POINT( '', #331 );
#285 = LINE( '', #332, #333 );
#286 = VERTEX_POINT( '', #334 );
#287 = LINE( '', #335, #336 );
#288 = LINE( '', #337, #338 );
#289 = FILL_AREA_STYLE_COLOUR( '', #339 );
#290 = VERTEX_POINT( '', #340 );
#291 = LINE( '', #341, #342 );
#292 = VERTEX_POINT( '', #343 );
#293 = LINE( '', #344, #345 );
#294 = LINE( '', #346, #347 );
#295 = FILL_AREA_STYLE_COLOUR( '', #348 );
#296 = VERTEX_POINT( '', #349 );
#297 = LINE( '', #350, #351 );
#298 = LINE( '', #352, #353 );
#299 = FILL_AREA_STYLE_COLOUR( '', #354 );
#300 = VERTEX_POINT( '', #355 );
#301 = LINE( '', #356, #357 );
#302 = LINE( '', #358, #359 );
#303 = FILL_AREA_STYLE_COLOUR( '', #360 );
#304 = VERTEX_POINT( '', #361 );
#305 = CIRCLE( '', #362, 11.0000000000000 );
#306 = FILL_AREA_STYLE_COLOUR( '', #363 );
#307 = VERTEX_POINT( '', #364 );
#308 = CIRCLE( '', #365, 27.0000000000000 );
#309 = VERTEX_POINT( '', #366 );
#310 = CIRCLE( '', #367, 27.0000000000000 );
#311 = VERTEX_POINT( '', #368 );
#312 = CIRCLE( '', #369, 11.0000000000000 );
#313 = LINE( '', #370, #371 );
#314 = FILL_AREA_STYLE_COLOUR( '', #372 );
#315 = FILL_AREA_STYLE_COLOUR( '', #373 );
#316 = FILL_AREA_STYLE_COLOUR( '', #374 );
#317 = FILL_AREA_STYLE_COLOUR( '', #375 );
#318 = COLOUR_RGB( '', 0.752941191196442, 0.752941191196442, 0.752941191196442 );
#319 = CARTESIAN_POINT( '', ( -419.000000000000, 10.0000000000000, 0.000000000000000 ) );
#320 = AXIS2_PLACEMENT_3D( '', #376, #377, #378 );
#321 = CARTESIAN_POINT( '', ( 473.000000000000, 10.0000000000000, 0.000000000000000 ) );
#322 = AXIS2_PLACEMENT_3D( '', #379, #380, #381 );
#323 = CARTESIAN_POINT( '', ( 398.000000000000, 10.0000000000000, 0.000000000000000 ) );
#324 = AXIS2_PLACEMENT_3D( '', #382, #383, #384 );
#325 = CARTESIAN_POINT( '', ( -376.000000000000, 10.0000000000000, 0.000000000000000 ) );
#326 = AXIS2_PLACEMENT_3D( '', #385, #386, #387 );
#327 = CARTESIAN_POINT( '', ( 498.000000000000, 42.0000000000000, 0.000000000000000 ) );
#328 = CARTESIAN_POINT( '', ( -498.000000000000, 42.0000000000000, 0.000000000000000 ) );
#329 = CARTESIAN_POINT( '', ( 498.000000000000, 42.0000000000000, 0.000000000000000 ) );
#330 = VECTOR( '', #388, 1000.00000000000 );
#331 = CARTESIAN_POINT( '', ( 498.000000000000, -42.0000000000000, 0.000000000000000 ) );
#332 = CARTESIAN_POINT( '', ( 498.000000000000, -42.0000000000000, 0.000000000000000 ) );
#333 = VECTOR( '', #389, 1000.00000000000 );
#334 = CARTESIAN_POINT( '', ( -498.000000000000, -42.0000000000000, 0.000000000000000 ) );
#335 = CARTESIAN_POINT( '', ( -498.000000000000, -42.0000000000000, 0.000000000000000 ) );
#336 = VECTOR( '', #390, 1000.00000000000 );
#337 = CARTESIAN_POINT( '', ( -498.000000000000, 42.0000000000000, 0.000000000000000 ) );
#338 = VECTOR( '', #391, 1000.00000000000 );
#339 = COLOUR_RGB( '', 0.752941191196442, 0.752941191196442, 0.752941191196442 );
#340 = CARTESIAN_POINT( '', ( -498.000000000000, 42.0000000000000, 136.000000000000 ) );
#341 = CARTESIAN_POINT( '', ( -498.000000000000, 42.0000000000000, 136.000000000000 ) );
#342 = VECTOR( '', #392, 1000.00000000000 );
#343 = CARTESIAN_POINT( '', ( 498.000000000000, 42.0000000000000, 136.000000000000 ) );
#344 = CARTESIAN_POINT( '', ( 498.000000000000, 42.0000000000000, 136.000000000000 ) );
#345 = VECTOR( '', #393, 1000.00000000000 );
#346 = CARTESIAN_POINT( '', ( 498.000000000000, 42.0000000000000, 136.000000000000 ) );
#347 = VECTOR( '', #394, 1000.00000000000 );
#348 = COLOUR_RGB( '', 0.752941191196442, 0.752941191196442, 0.752941191196442 );
#349 = CARTESIAN_POINT( '', ( -498.000000000000, -42.0000000000000, 136.000000000000 ) );
#350 = CARTESIAN_POINT( '', ( -498.000000000000, -42.0000000000000, 136.000000000000 ) );
#351 = VECTOR( '', #395, 1000.00000000000 );
#352 = CARTESIAN_POINT( '', ( -498.000000000000, 42.0000000000000, 136.000000000000 ) );
#353 = VECTOR( '', #396, 1000.00000000000 );
#354 = COLOUR_RGB( '', 0.752941191196442, 0.752941191196442, 0.752941191196442 );
#355 = CARTESIAN_POINT( '', ( 498.000000000000, -42.0000000000000, 136.000000000000 ) );
#356 = CARTESIAN_POINT( '', ( 498.000000000000, -42.0000000000000, 136.000000000000 ) );
#357 = VECTOR( '', #397, 1000.00000000000 );
#358 = CARTESIAN_POINT( '', ( -498.000000000000, -42.0000000000000, 136.000000000000 ) );
#359 = VECTOR( '', #398, 1000.00000000000 );
#360 = COLOUR_RGB( '', 0.752941191196442, 0.752941191196442, 0.752941191196442 );
#361 = CARTESIAN_POINT( '', ( 387.000000000000, -0.999999999999999, 136.000000000000 ) );
#362 = AXIS2_PLACEMENT_3D( '', #399, #400, #401 );
#363 = COLOUR_RGB( '', 0.752941191196442, 0.752941191196442, 0.752941191196442 );
#364 = CARTESIAN_POINT( '', ( -446.000000000000, -17.0000000000000, 136.000000000000 ) );
#365 = AXIS2_PLACEMENT_3D( '', #402, #403, #404 );
#366 = CARTESIAN_POINT( '', ( 446.000000000000, -17.0000000000000, 136.000000000000 ) );
#367 = AXIS2_PLACEMENT_3D( '', #405, #406, #407 );
#368 = CARTESIAN_POINT( '', ( -387.000000000000, -0.999999999999999, 136.000000000000 ) );
#369 = AXIS2_PLACEMENT_3D( '', #408, #409, #410 );
#370 = CARTESIAN_POINT( '', ( 498.000000000000, -42.0000000000000, 136.000000000000 ) );
#371 = VECTOR( '', #411, 1000.00000000000 );
#372 = COLOUR_RGB( '', 0.752941191196442, 0.752941191196442, 0.752941191196442 );
#373 = COLOUR_RGB( '', 0.752941191196442, 0.752941191196442, 0.752941191196442 );
#374 = COLOUR_RGB( '', 0.752941191196442, 0.752941191196442, 0.752941191196442 );
#375 = COLOUR_RGB( '', 0.752941191196442, 0.752941191196442, 0.752941191196442 );
#376 = CARTESIAN_POINT( '', ( -446.000000000000, 10.0000000000000, 0.000000000000000 ) );
#377 = DIRECTION( '', ( 0.000000000000000, 0.000000000000000, 1.00000000000000 ) );
#378 = DIRECTION( '', ( 1.00000000000000, 0.000000000000000, 0.000000000000000 ) );
#379 = CARTESIAN_POINT( '', ( 446.000000000000, 10.0000000000000, 0.000000000000000 ) );
#380 = DIRECTION( '', ( 0.000000000000000, 0.000000000000000, 1.00000000000000 ) );
#381 = DIRECTION( '', ( 1.00000000000000, 0.000000000000000, 0.000000000000000 ) );
#382 = CARTESIAN_POINT( '', ( 387.000000000000, 10.0000000000000, 0.000000000000000 ) );
#383 = DIRECTION( '', ( 0.000000000000000, 0.000000000000000, 1.00000000000000 ) );
#384 = DIRECTION( '', ( 1.00000000000000, 0.000000000000000, 0.000000000000000 ) );
#385 = CARTESIAN_POINT( '', ( -387.000000000000, 10.0000000000000, 0.000000000000000 ) );
#386 = DIRECTION( '', ( 0.000000000000000, 0.000000000000000, 1.00000000000000 ) );
#387 = DIRECTION( '', ( 1.00000000000000, 0.000000000000000, 0.000000000000000 ) );
#388 = DIRECTION( '', ( -1.00000000000000, 3.48338047384901E-017, 0.000000000000000 ) );
#389 = DIRECTION( '', ( 0.000000000000000, 1.00000000000000, 0.000000000000000 ) );
#390 = DIRECTION( '', ( 1.00000000000000, -5.57340875815842E-017, 0.000000000000000 ) );
#391 = DIRECTION( '', ( 0.000000000000000, -1.00000000000000, 0.000000000000000 ) );
#392 = DIRECTION( '', ( 0.000000000000000, 0.000000000000000, -1.00000000000000 ) );
#393 = DIRECTION( '', ( -1.00000000000000, 3.48338047384901E-017, 0.000000000000000 ) );
#394 = DIRECTION( '', ( 0.000000000000000, 0.000000000000000, -1.00000000000000 ) );
#395 = DIRECTION( '', ( 0.000000000000000, 0.000000000000000, -1.00000000000000 ) );
#396 = DIRECTION( '', ( 0.000000000000000, -1.00000000000000, 0.000000000000000 ) );
#397 = DIRECTION( '', ( 0.000000000000000, 0.000000000000000, -1.00000000000000 ) );
#398 = DIRECTION( '', ( 1.00000000000000, -5.57340875815842E-017, 0.000000000000000 ) );
#399 = CARTESIAN_POINT( '', ( 387.000000000000, 10.0000000000000, 136.000000000000 ) );
#400 = DIRECTION( '', ( 0.000000000000000, 0.000000000000000, -1.00000000000000 ) );
#401 = DIRECTION( '', ( 0.000000000000000, -1.00000000000000, 0.000000000000000 ) );
#402 = CARTESIAN_POINT( '', ( -446.000000000000, 10.0000000000000, 136.000000000000 ) );
#403 = DIRECTION( '', ( 0.000000000000000, 0.000000000000000, -1.00000000000000 ) );
#404 = DIRECTION( '', ( 0.000000000000000, -1.00000000000000, 0.000000000000000 ) );
#405 = CARTESIAN_POINT( '', ( 446.000000000000, 10.0000000000000, 136.000000000000 ) );
#406 = DIRECTION( '', ( 0.000000000000000, 0.000000000000000, -1.00000000000000 ) );
#407 = DIRECTION( '', ( 0.000000000000000, -1.00000000000000, 0.000000000000000 ) );
#408 = CARTESIAN_POINT( '', ( -387.000000000000, 10.0000000000000, 136.000000000000 ) );
#409 = DIRECTION( '', ( 0.000000000000000, 0.000000000000000, -1.00000000000000 ) );
#410 = DIRECTION( '', ( 0.000000000000000, -1.00000000000000, 0.000000000000000 ) );
#411 = DIRECTION( '', ( 0.000000000000000, 1.00000000000000, 0.000000000000000 ) );
ENDSEC;
END-ISO-10303-21;
