ISO-10303-21;
HEADER;
FILE_DESCRIPTION( ( 'Unknown' ), '1' );
FILE_NAME( 'M:/Piezas_3D/Placas_Par/G2/OS_G2_796x796x136_.stp', 'Unknown', ( 'Unknown' ), ( 'Unknown' ), 'PSStep 16.0.42', 'Unknown', '  ' );
FILE_SCHEMA( ( 'AUTOMOTIVE_DESIGN { 1 0 10303 214 1 1 1 1 }' ) );
ENDSEC;
DATA;
#1 = MECHANICAL_DESIGN_GEOMETRIC_PRESENTATION_REPRESENTATION( ' ', ( #10, #11, #12, #13, #14, #15, #16, #17, #18, #19 ), #6 );
#2 = PRODUCT_DEFINITION_CONTEXT( '', #20, 'design' );
#3 = APPLICATION_PROTOCOL_DEFINITION( 'international standard', 'automotive_design', 2001, #20 );
#4 = PRODUCT_CATEGORY_RELATIONSHIP( 'NONE', 'NONE', #21, #22 );
#5 = SHAPE_DEFINITION_REPRESENTATION( #23, #24 );
#6 =  ( GEOMETRIC_REPRESENTATION_CONTEXT( 3 )GLOBAL_UNCERTAINTY_ASSIGNED_CONTEXT( ( #27 ) )GLOBAL_UNIT_ASSIGNED_CONTEXT( ( #29, #30, #31 ) )REPRESENTATION_CONTEXT( 'NONE', 'WORKSPACE' ) );
#10 = STYLED_ITEM( '', ( #33 ), #34 );
#11 = STYLED_ITEM( '', ( #35 ), #36 );
#12 = STYLED_ITEM( '', ( #37 ), #38 );
#13 = STYLED_ITEM( '', ( #39 ), #40 );
#14 = STYLED_ITEM( '', ( #41 ), #42 );
#15 = STYLED_ITEM( '', ( #43 ), #44 );
#16 = STYLED_ITEM( '', ( #45 ), #46 );
#17 = STYLED_ITEM( '', ( #47 ), #48 );
#18 = STYLED_ITEM( '', ( #49 ), #50 );
#19 = STYLED_ITEM( '', ( #51 ), #52 );
#20 = APPLICATION_CONTEXT( 'core data for automotive mechanical design processes' );
#21 = PRODUCT_CATEGORY( 'part', 'NONE' );
#22 = PRODUCT_RELATED_PRODUCT_CATEGORY( 'detail', ' ', ( #53 ) );
#23 = PRODUCT_DEFINITION_SHAPE( 'NONE', 'NONE', #54 );
#24 = ADVANCED_BREP_SHAPE_REPRESENTATION( '1', ( #55, #56 ), #6 );
#27 = UNCERTAINTY_MEASURE_WITH_UNIT( LENGTH_MEASURE( 0.00100000000000000 ), #29, '', '' );
#29 =  ( CONVERSION_BASED_UNIT( 'MILLIMETRE', #59 )LENGTH_UNIT(  )NAMED_UNIT( #62 ) );
#30 =  ( NAMED_UNIT( #64 )PLANE_ANGLE_UNIT(  )SI_UNIT( $, .RADIAN. ) );
#31 =  ( NAMED_UNIT( #64 )SI_UNIT( $, .STERADIAN. )SOLID_ANGLE_UNIT(  ) );
#33 = PRESENTATION_STYLE_ASSIGNMENT( ( #70 ) );
#34 = ADVANCED_FACE( '', ( #71 ), #72, .F. );
#35 = PRESENTATION_STYLE_ASSIGNMENT( ( #73 ) );
#36 = ADVANCED_FACE( '', ( #74 ), #75, .F. );
#37 = PRESENTATION_STYLE_ASSIGNMENT( ( #76 ) );
#38 = ADVANCED_FACE( '', ( #77, #78 ), #79, .F. );
#39 = PRESENTATION_STYLE_ASSIGNMENT( ( #80 ) );
#40 = ADVANCED_FACE( '', ( #81, #82, #83, #84, #85 ), #86, .F. );
#41 = PRESENTATION_STYLE_ASSIGNMENT( ( #87 ) );
#42 = ADVANCED_FACE( '', ( #88, #89 ), #90, .F. );
#43 = PRESENTATION_STYLE_ASSIGNMENT( ( #91 ) );
#44 = ADVANCED_FACE( '', ( #92 ), #93, .F. );
#45 = PRESENTATION_STYLE_ASSIGNMENT( ( #94 ) );
#46 = ADVANCED_FACE( '', ( #95, #96 ), #97, .F. );
#47 = PRESENTATION_STYLE_ASSIGNMENT( ( #98 ) );
#48 = ADVANCED_FACE( '', ( #99, #100 ), #101, .F. );
#49 = PRESENTATION_STYLE_ASSIGNMENT( ( #102 ) );
#50 = ADVANCED_FACE( '', ( #103 ), #104, .F. );
#51 = PRESENTATION_STYLE_ASSIGNMENT( ( #105 ) );
#52 = ADVANCED_FACE( '', ( #106, #107, #108, #109, #110 ), #111, .T. );
#53 = PRODUCT( '1', '1', 'PART-1-DESC', ( #112 ) );
#54 = PRODUCT_DEFINITION( 'NONE', 'NONE', #113, #2 );
#55 = MANIFOLD_SOLID_BREP( '1', #114 );
#56 = AXIS2_PLACEMENT_3D( '', #115, #116, #117 );
#59 = LENGTH_MEASURE_WITH_UNIT( LENGTH_MEASURE( 1.00000000000000 ), #118 );
#62 = DIMENSIONAL_EXPONENTS( 1.00000000000000, 0.000000000000000, 0.000000000000000, 0.000000000000000, 0.000000000000000, 0.000000000000000, 0.000000000000000 );
#64 = DIMENSIONAL_EXPONENTS( 0.000000000000000, 0.000000000000000, 0.000000000000000, 0.000000000000000, 0.000000000000000, 0.000000000000000, 0.000000000000000 );
#70 = SURFACE_STYLE_USAGE( .BOTH., #119 );
#71 = FACE_OUTER_BOUND( '', #120, .T. );
#72 = PLANE( '', #121 );
#73 = SURFACE_STYLE_USAGE( .BOTH., #122 );
#74 = FACE_OUTER_BOUND( '', #123, .T. );
#75 = PLANE( '', #124 );
#76 = SURFACE_STYLE_USAGE( .BOTH., #125 );
#77 = FACE_OUTER_BOUND( '', #126, .T. );
#78 = FACE_OUTER_BOUND( '', #127, .T. );
#79 = CYLINDRICAL_SURFACE( '', #128, 11.0000000000000 );
#80 = SURFACE_STYLE_USAGE( .BOTH., #129 );
#81 = FACE_BOUND( '', #130, .T. );
#82 = FACE_BOUND( '', #131, .T. );
#83 = FACE_BOUND( '', #132, .T. );
#84 = FACE_BOUND( '', #133, .T. );
#85 = FACE_OUTER_BOUND( '', #134, .T. );
#86 = PLANE( '', #135 );
#87 = SURFACE_STYLE_USAGE( .BOTH., #136 );
#88 = FACE_OUTER_BOUND( '', #137, .T. );
#89 = FACE_OUTER_BOUND( '', #138, .T. );
#90 = CYLINDRICAL_SURFACE( '', #139, 11.0000000000000 );
#91 = SURFACE_STYLE_USAGE( .BOTH., #140 );
#92 = FACE_OUTER_BOUND( '', #141, .T. );
#93 = PLANE( '', #142 );
#94 = SURFACE_STYLE_USAGE( .BOTH., #143 );
#95 = FACE_OUTER_BOUND( '', #144, .T. );
#96 = FACE_OUTER_BOUND( '', #145, .T. );
#97 = CYLINDRICAL_SURFACE( '', #146, 27.0000000000000 );
#98 = SURFACE_STYLE_USAGE( .BOTH., #147 );
#99 = FACE_OUTER_BOUND( '', #148, .T. );
#100 = FACE_OUTER_BOUND( '', #149, .T. );
#101 = CYLINDRICAL_SURFACE( '', #150, 27.0000000000000 );
#102 = SURFACE_STYLE_USAGE( .BOTH., #151 );
#103 = FACE_OUTER_BOUND( '', #152, .T. );
#104 = PLANE( '', #153 );
#105 = SURFACE_STYLE_USAGE( .BOTH., #154 );
#106 = FACE_BOUND( '', #155, .T. );
#107 = FACE_BOUND( '', #156, .T. );
#108 = FACE_BOUND( '', #157, .T. );
#109 = FACE_BOUND( '', #158, .T. );
#110 = FACE_OUTER_BOUND( '', #159, .T. );
#111 = PLANE( '', #160 );
#112 = PRODUCT_CONTEXT( '', #20, 'mechanical' );
#113 = PRODUCT_DEFINITION_FORMATION_WITH_SPECIFIED_SOURCE( ' ', 'NONE', #53, .NOT_KNOWN. );
#114 = CLOSED_SHELL( '', ( #38, #40, #34, #52, #50, #36, #44, #42, #46, #48 ) );
#115 = CARTESIAN_POINT( '', ( 0.000000000000000, 0.000000000000000, 0.000000000000000 ) );
#116 = DIRECTION( '', ( 0.000000000000000, 0.000000000000000, 1.00000000000000 ) );
#117 = DIRECTION( '', ( 1.00000000000000, 0.000000000000000, 0.000000000000000 ) );
#118 =  ( LENGTH_UNIT(  )NAMED_UNIT( #62 )SI_UNIT( .MILLI., .METRE. ) );
#119 = SURFACE_SIDE_STYLE( '', ( #162 ) );
#120 = EDGE_LOOP( '', ( #163, #164, #165, #166 ) );
#121 = AXIS2_PLACEMENT_3D( '', #167, #168, #169 );
#122 = SURFACE_SIDE_STYLE( '', ( #170 ) );
#123 = EDGE_LOOP( '', ( #171, #172, #173, #174 ) );
#124 = AXIS2_PLACEMENT_3D( '', #175, #176, #177 );
#125 = SURFACE_SIDE_STYLE( '', ( #178 ) );
#126 = EDGE_LOOP( '', ( #179 ) );
#127 = EDGE_LOOP( '', ( #180 ) );
#128 = AXIS2_PLACEMENT_3D( '', #181, #182, #183 );
#129 = SURFACE_SIDE_STYLE( '', ( #184 ) );
#130 = EDGE_LOOP( '', ( #185 ) );
#131 = EDGE_LOOP( '', ( #186 ) );
#132 = EDGE_LOOP( '', ( #187 ) );
#133 = EDGE_LOOP( '', ( #188 ) );
#134 = EDGE_LOOP( '', ( #189, #190, #191, #192 ) );
#135 = AXIS2_PLACEMENT_3D( '', #193, #194, #195 );
#136 = SURFACE_SIDE_STYLE( '', ( #196 ) );
#137 = EDGE_LOOP( '', ( #197 ) );
#138 = EDGE_LOOP( '', ( #198 ) );
#139 = AXIS2_PLACEMENT_3D( '', #199, #200, #201 );
#140 = SURFACE_SIDE_STYLE( '', ( #202 ) );
#141 = EDGE_LOOP( '', ( #203, #204, #205, #206 ) );
#142 = AXIS2_PLACEMENT_3D( '', #207, #208, #209 );
#143 = SURFACE_SIDE_STYLE( '', ( #210 ) );
#144 = EDGE_LOOP( '', ( #211 ) );
#145 = EDGE_LOOP( '', ( #212 ) );
#146 = AXIS2_PLACEMENT_3D( '', #213, #214, #215 );
#147 = SURFACE_SIDE_STYLE( '', ( #216 ) );
#148 = EDGE_LOOP( '', ( #217 ) );
#149 = EDGE_LOOP( '', ( #218 ) );
#150 = AXIS2_PLACEMENT_3D( '', #219, #220, #221 );
#151 = SURFACE_SIDE_STYLE( '', ( #222 ) );
#152 = EDGE_LOOP( '', ( #223, #224, #225, #226 ) );
#153 = AXIS2_PLACEMENT_3D( '', #227, #228, #229 );
#154 = SURFACE_SIDE_STYLE( '', ( #230 ) );
#155 = EDGE_LOOP( '', ( #231 ) );
#156 = EDGE_LOOP( '', ( #232 ) );
#157 = EDGE_LOOP( '', ( #233 ) );
#158 = EDGE_LOOP( '', ( #234 ) );
#159 = EDGE_LOOP( '', ( #235, #236, #237, #238 ) );
#160 = AXIS2_PLACEMENT_3D( '', #239, #240, #241 );
#162 = SURFACE_STYLE_FILL_AREA( #242 );
#163 = ORIENTED_EDGE( '', *, *, #243, .T. );
#164 = ORIENTED_EDGE( '', *, *, #244, .F. );
#165 = ORIENTED_EDGE( '', *, *, #245, .F. );
#166 = ORIENTED_EDGE( '', *, *, #246, .T. );
#167 = CARTESIAN_POINT( '', ( 398.000000000000, -42.0000000000000, 136.000000000000 ) );
#168 = DIRECTION( '', ( -1.00000000000000, 0.000000000000000, 0.000000000000000 ) );
#169 = DIRECTION( '', ( 0.000000000000000, 0.000000000000000, 1.00000000000000 ) );
#170 = SURFACE_STYLE_FILL_AREA( #247 );
#171 = ORIENTED_EDGE( '', *, *, #248, .T. );
#172 = ORIENTED_EDGE( '', *, *, #249, .F. );
#173 = ORIENTED_EDGE( '', *, *, #250, .F. );
#174 = ORIENTED_EDGE( '', *, *, #244, .T. );
#175 = CARTESIAN_POINT( '', ( 398.000000000000, 42.0000000000000, 136.000000000000 ) );
#176 = DIRECTION( '', ( -1.74344067937368E-017, -1.00000000000000, 0.000000000000000 ) );
#177 = DIRECTION( '', ( 1.00000000000000, -1.74344067937368E-017, 0.000000000000000 ) );
#178 = SURFACE_STYLE_FILL_AREA( #251 );
#179 = ORIENTED_EDGE( '', *, *, #252, .F. );
#180 = ORIENTED_EDGE( '', *, *, #253, .F. );
#181 = CARTESIAN_POINT( '', ( -287.000000000000, 10.0000000000000, 136.000000000000 ) );
#182 = DIRECTION( '', ( -0.000000000000000, -0.000000000000000, 1.00000000000000 ) );
#183 = DIRECTION( '', ( 0.000000000000000, -1.00000000000000, 0.000000000000000 ) );
#184 = SURFACE_STYLE_FILL_AREA( #254 );
#185 = ORIENTED_EDGE( '', *, *, #255, .T. );
#186 = ORIENTED_EDGE( '', *, *, #256, .T. );
#187 = ORIENTED_EDGE( '', *, *, #257, .T. );
#188 = ORIENTED_EDGE( '', *, *, #253, .T. );
#189 = ORIENTED_EDGE( '', *, *, #248, .F. );
#190 = ORIENTED_EDGE( '', *, *, #243, .F. );
#191 = ORIENTED_EDGE( '', *, *, #258, .F. );
#192 = ORIENTED_EDGE( '', *, *, #259, .F. );
#193 = CARTESIAN_POINT( '', ( -398.000000000000, 42.0000000000000, 0.000000000000000 ) );
#194 = DIRECTION( '', ( 0.000000000000000, 0.000000000000000, 1.00000000000000 ) );
#195 = DIRECTION( '', ( 1.00000000000000, 0.000000000000000, 0.000000000000000 ) );
#196 = SURFACE_STYLE_FILL_AREA( #260 );
#197 = ORIENTED_EDGE( '', *, *, #261, .F. );
#198 = ORIENTED_EDGE( '', *, *, #257, .F. );
#199 = CARTESIAN_POINT( '', ( 287.000000000000, 10.0000000000000, 136.000000000000 ) );
#200 = DIRECTION( '', ( -0.000000000000000, -0.000000000000000, 1.00000000000000 ) );
#201 = DIRECTION( '', ( 0.000000000000000, -1.00000000000000, 0.000000000000000 ) );
#202 = SURFACE_STYLE_FILL_AREA( #262 );
#203 = ORIENTED_EDGE( '', *, *, #259, .T. );
#204 = ORIENTED_EDGE( '', *, *, #263, .F. );
#205 = ORIENTED_EDGE( '', *, *, #264, .F. );
#206 = ORIENTED_EDGE( '', *, *, #249, .T. );
#207 = CARTESIAN_POINT( '', ( -398.000000000000, 42.0000000000000, 136.000000000000 ) );
#208 = DIRECTION( '', ( 1.00000000000000, 0.000000000000000, 0.000000000000000 ) );
#209 = DIRECTION( '', ( 0.000000000000000, 0.000000000000000, -1.00000000000000 ) );
#210 = SURFACE_STYLE_FILL_AREA( #265 );
#211 = ORIENTED_EDGE( '', *, *, #266, .F. );
#212 = ORIENTED_EDGE( '', *, *, #256, .F. );
#213 = CARTESIAN_POINT( '', ( 346.000000000000, 10.0000000000000, 136.000000000000 ) );
#214 = DIRECTION( '', ( -0.000000000000000, -0.000000000000000, 1.00000000000000 ) );
#215 = DIRECTION( '', ( 0.000000000000000, -1.00000000000000, 0.000000000000000 ) );
#216 = SURFACE_STYLE_FILL_AREA( #267 );
#217 = ORIENTED_EDGE( '', *, *, #268, .F. );
#218 = ORIENTED_EDGE( '', *, *, #255, .F. );
#219 = CARTESIAN_POINT( '', ( -346.000000000000, 10.0000000000000, 136.000000000000 ) );
#220 = DIRECTION( '', ( -0.000000000000000, -0.000000000000000, 1.00000000000000 ) );
#221 = DIRECTION( '', ( 0.000000000000000, -1.00000000000000, 0.000000000000000 ) );
#222 = SURFACE_STYLE_FILL_AREA( #269 );
#223 = ORIENTED_EDGE( '', *, *, #258, .T. );
#224 = ORIENTED_EDGE( '', *, *, #246, .F. );
#225 = ORIENTED_EDGE( '', *, *, #270, .F. );
#226 = ORIENTED_EDGE( '', *, *, #263, .T. );
#227 = CARTESIAN_POINT( '', ( -398.000000000000, -42.0000000000000, 136.000000000000 ) );
#228 = DIRECTION( '', ( 6.97376271749470E-017, 1.00000000000000, 0.000000000000000 ) );
#229 = DIRECTION( '', ( -1.00000000000000, 6.97376271749470E-017, 0.000000000000000 ) );
#230 = SURFACE_STYLE_FILL_AREA( #271 );
#231 = ORIENTED_EDGE( '', *, *, #268, .T. );
#232 = ORIENTED_EDGE( '', *, *, #266, .T. );
#233 = ORIENTED_EDGE( '', *, *, #261, .T. );
#234 = ORIENTED_EDGE( '', *, *, #252, .T. );
#235 = ORIENTED_EDGE( '', *, *, #250, .T. );
#236 = ORIENTED_EDGE( '', *, *, #264, .T. );
#237 = ORIENTED_EDGE( '', *, *, #270, .T. );
#238 = ORIENTED_EDGE( '', *, *, #245, .T. );
#239 = CARTESIAN_POINT( '', ( -398.000000000000, 42.0000000000000, 136.000000000000 ) );
#240 = DIRECTION( '', ( 0.000000000000000, 0.000000000000000, 1.00000000000000 ) );
#241 = DIRECTION( '', ( 1.00000000000000, 0.000000000000000, 0.000000000000000 ) );
#242 = FILL_AREA_STYLE( '', ( #272 ) );
#243 = EDGE_CURVE( '', #273, #274, #275, .T. );
#244 = EDGE_CURVE( '', #276, #274, #277, .T. );
#245 = EDGE_CURVE( '', #278, #276, #279, .T. );
#246 = EDGE_CURVE( '', #278, #273, #280, .T. );
#247 = FILL_AREA_STYLE( '', ( #281 ) );
#248 = EDGE_CURVE( '', #274, #282, #283, .T. );
#249 = EDGE_CURVE( '', #284, #282, #285, .T. );
#250 = EDGE_CURVE( '', #276, #284, #286, .T. );
#251 = FILL_AREA_STYLE( '', ( #287 ) );
#252 = EDGE_CURVE( '', #288, #288, #289, .T. );
#253 = EDGE_CURVE( '', #290, #290, #291, .T. );
#254 = FILL_AREA_STYLE( '', ( #292 ) );
#255 = EDGE_CURVE( '', #293, #293, #294, .T. );
#256 = EDGE_CURVE( '', #295, #295, #296, .T. );
#257 = EDGE_CURVE( '', #297, #297, #298, .T. );
#258 = EDGE_CURVE( '', #299, #273, #300, .T. );
#259 = EDGE_CURVE( '', #282, #299, #301, .T. );
#260 = FILL_AREA_STYLE( '', ( #302 ) );
#261 = EDGE_CURVE( '', #303, #303, #304, .T. );
#262 = FILL_AREA_STYLE( '', ( #305 ) );
#263 = EDGE_CURVE( '', #306, #299, #307, .T. );
#264 = EDGE_CURVE( '', #284, #306, #308, .T. );
#265 = FILL_AREA_STYLE( '', ( #309 ) );
#266 = EDGE_CURVE( '', #310, #310, #311, .T. );
#267 = FILL_AREA_STYLE( '', ( #312 ) );
#268 = EDGE_CURVE( '', #313, #313, #314, .T. );
#269 = FILL_AREA_STYLE( '', ( #315 ) );
#270 = EDGE_CURVE( '', #306, #278, #316, .T. );
#271 = FILL_AREA_STYLE( '', ( #317 ) );
#272 = FILL_AREA_STYLE_COLOUR( '', #318 );
#273 = VERTEX_POINT( '', #319 );
#274 = VERTEX_POINT( '', #320 );
#275 = LINE( '', #321, #322 );
#276 = VERTEX_POINT( '', #323 );
#277 = LINE( '', #324, #325 );
#278 = VERTEX_POINT( '', #326 );
#279 = LINE( '', #327, #328 );
#280 = LINE( '', #329, #330 );
#281 = FILL_AREA_STYLE_COLOUR( '', #331 );
#282 = VERTEX_POINT( '', #332 );
#283 = LINE( '', #333, #334 );
#284 = VERTEX_POINT( '', #335 );
#285 = LINE( '', #336, #337 );
#286 = LINE( '', #338, #339 );
#287 = FILL_AREA_STYLE_COLOUR( '', #340 );
#288 = VERTEX_POINT( '', #341 );
#289 = CIRCLE( '', #342, 11.0000000000000 );
#290 = VERTEX_POINT( '', #343 );
#291 = CIRCLE( '', #344, 11.0000000000000 );
#292 = FILL_AREA_STYLE_COLOUR( '', #345 );
#293 = VERTEX_POINT( '', #346 );
#294 = CIRCLE( '', #347, 27.0000000000000 );
#295 = VERTEX_POINT( '', #348 );
#296 = CIRCLE( '', #349, 27.0000000000000 );
#297 = VERTEX_POINT( '', #350 );
#298 = CIRCLE( '', #351, 11.0000000000000 );
#299 = VERTEX_POINT( '', #352 );
#300 = LINE( '', #353, #354 );
#301 = LINE( '', #355, #356 );
#302 = FILL_AREA_STYLE_COLOUR( '', #357 );
#303 = VERTEX_POINT( '', #358 );
#304 = CIRCLE( '', #359, 11.0000000000000 );
#305 = FILL_AREA_STYLE_COLOUR( '', #360 );
#306 = VERTEX_POINT( '', #361 );
#307 = LINE( '', #362, #363 );
#308 = LINE( '', #364, #365 );
#309 = FILL_AREA_STYLE_COLOUR( '', #366 );
#310 = VERTEX_POINT( '', #367 );
#311 = CIRCLE( '', #368, 27.0000000000000 );
#312 = FILL_AREA_STYLE_COLOUR( '', #369 );
#313 = VERTEX_POINT( '', #370 );
#314 = CIRCLE( '', #371, 27.0000000000000 );
#315 = FILL_AREA_STYLE_COLOUR( '', #372 );
#316 = LINE( '', #373, #374 );
#317 = FILL_AREA_STYLE_COLOUR( '', #375 );
#318 = COLOUR_RGB( '', 0.752941191196442, 0.752941191196442, 0.752941191196442 );
#319 = CARTESIAN_POINT( '', ( 398.000000000000, -42.0000000000000, 0.000000000000000 ) );
#320 = CARTESIAN_POINT( '', ( 398.000000000000, 42.0000000000000, 0.000000000000000 ) );
#321 = CARTESIAN_POINT( '', ( 398.000000000000, -42.0000000000000, 0.000000000000000 ) );
#322 = VECTOR( '', #376, 1000.00000000000 );
#323 = CARTESIAN_POINT( '', ( 398.000000000000, 42.0000000000000, 136.000000000000 ) );
#324 = CARTESIAN_POINT( '', ( 398.000000000000, 42.0000000000000, 136.000000000000 ) );
#325 = VECTOR( '', #377, 1000.00000000000 );
#326 = CARTESIAN_POINT( '', ( 398.000000000000, -42.0000000000000, 136.000000000000 ) );
#327 = CARTESIAN_POINT( '', ( 398.000000000000, -42.0000000000000, 136.000000000000 ) );
#328 = VECTOR( '', #378, 1000.00000000000 );
#329 = CARTESIAN_POINT( '', ( 398.000000000000, -42.0000000000000, 136.000000000000 ) );
#330 = VECTOR( '', #379, 1000.00000000000 );
#331 = COLOUR_RGB( '', 0.752941191196442, 0.752941191196442, 0.752941191196442 );
#332 = CARTESIAN_POINT( '', ( -398.000000000000, 42.0000000000000, 0.000000000000000 ) );
#333 = CARTESIAN_POINT( '', ( 398.000000000000, 42.0000000000000, 0.000000000000000 ) );
#334 = VECTOR( '', #380, 1000.00000000000 );
#335 = CARTESIAN_POINT( '', ( -398.000000000000, 42.0000000000000, 136.000000000000 ) );
#336 = CARTESIAN_POINT( '', ( -398.000000000000, 42.0000000000000, 136.000000000000 ) );
#337 = VECTOR( '', #381, 1000.00000000000 );
#338 = CARTESIAN_POINT( '', ( 398.000000000000, 42.0000000000000, 136.000000000000 ) );
#339 = VECTOR( '', #382, 1000.00000000000 );
#340 = COLOUR_RGB( '', 0.752941191196442, 0.752941191196442, 0.752941191196442 );
#341 = CARTESIAN_POINT( '', ( -287.000000000000, -0.999999999999999, 136.000000000000 ) );
#342 = AXIS2_PLACEMENT_3D( '', #383, #384, #385 );
#343 = CARTESIAN_POINT( '', ( -276.000000000000, 10.0000000000000, 0.000000000000000 ) );
#344 = AXIS2_PLACEMENT_3D( '', #386, #387, #388 );
#345 = COLOUR_RGB( '', 0.752941191196442, 0.752941191196442, 0.752941191196442 );
#346 = CARTESIAN_POINT( '', ( -319.000000000000, 10.0000000000000, 0.000000000000000 ) );
#347 = AXIS2_PLACEMENT_3D( '', #389, #390, #391 );
#348 = CARTESIAN_POINT( '', ( 373.000000000000, 10.0000000000000, 0.000000000000000 ) );
#349 = AXIS2_PLACEMENT_3D( '', #392, #393, #394 );
#350 = CARTESIAN_POINT( '', ( 298.000000000000, 10.0000000000000, 0.000000000000000 ) );
#351 = AXIS2_PLACEMENT_3D( '', #395, #396, #397 );
#352 = CARTESIAN_POINT( '', ( -398.000000000000, -42.0000000000000, 0.000000000000000 ) );
#353 = CARTESIAN_POINT( '', ( -398.000000000000, -42.0000000000000, 0.000000000000000 ) );
#354 = VECTOR( '', #398, 1000.00000000000 );
#355 = CARTESIAN_POINT( '', ( -398.000000000000, 42.0000000000000, 0.000000000000000 ) );
#356 = VECTOR( '', #399, 1000.00000000000 );
#357 = COLOUR_RGB( '', 0.752941191196442, 0.752941191196442, 0.752941191196442 );
#358 = CARTESIAN_POINT( '', ( 287.000000000000, -0.999999999999999, 136.000000000000 ) );
#359 = AXIS2_PLACEMENT_3D( '', #400, #401, #402 );
#360 = COLOUR_RGB( '', 0.752941191196442, 0.752941191196442, 0.752941191196442 );
#361 = CARTESIAN_POINT( '', ( -398.000000000000, -42.0000000000000, 136.000000000000 ) );
#362 = CARTESIAN_POINT( '', ( -398.000000000000, -42.0000000000000, 136.000000000000 ) );
#363 = VECTOR( '', #403, 1000.00000000000 );
#364 = CARTESIAN_POINT( '', ( -398.000000000000, 42.0000000000000, 136.000000000000 ) );
#365 = VECTOR( '', #404, 1000.00000000000 );
#366 = COLOUR_RGB( '', 0.752941191196442, 0.752941191196442, 0.752941191196442 );
#367 = CARTESIAN_POINT( '', ( 346.000000000000, -17.0000000000000, 136.000000000000 ) );
#368 = AXIS2_PLACEMENT_3D( '', #405, #406, #407 );
#369 = COLOUR_RGB( '', 0.752941191196442, 0.752941191196442, 0.752941191196442 );
#370 = CARTESIAN_POINT( '', ( -346.000000000000, -17.0000000000000, 136.000000000000 ) );
#371 = AXIS2_PLACEMENT_3D( '', #408, #409, #410 );
#372 = COLOUR_RGB( '', 0.752941191196442, 0.752941191196442, 0.752941191196442 );
#373 = CARTESIAN_POINT( '', ( -398.000000000000, -42.0000000000000, 136.000000000000 ) );
#374 = VECTOR( '', #411, 1000.00000000000 );
#375 = COLOUR_RGB( '', 0.752941191196442, 0.752941191196442, 0.752941191196442 );
#376 = DIRECTION( '', ( 0.000000000000000, 1.00000000000000, 0.000000000000000 ) );
#377 = DIRECTION( '', ( 0.000000000000000, 0.000000000000000, -1.00000000000000 ) );
#378 = DIRECTION( '', ( 0.000000000000000, 1.00000000000000, 0.000000000000000 ) );
#379 = DIRECTION( '', ( 0.000000000000000, 0.000000000000000, -1.00000000000000 ) );
#380 = DIRECTION( '', ( -1.00000000000000, 1.74344067937368E-017, 0.000000000000000 ) );
#381 = DIRECTION( '', ( 0.000000000000000, 0.000000000000000, -1.00000000000000 ) );
#382 = DIRECTION( '', ( -1.00000000000000, 1.74344067937368E-017, 0.000000000000000 ) );
#383 = CARTESIAN_POINT( '', ( -287.000000000000, 10.0000000000000, 136.000000000000 ) );
#384 = DIRECTION( '', ( 0.000000000000000, 0.000000000000000, -1.00000000000000 ) );
#385 = DIRECTION( '', ( 0.000000000000000, -1.00000000000000, 0.000000000000000 ) );
#386 = CARTESIAN_POINT( '', ( -287.000000000000, 10.0000000000000, 0.000000000000000 ) );
#387 = DIRECTION( '', ( 0.000000000000000, 0.000000000000000, 1.00000000000000 ) );
#388 = DIRECTION( '', ( 1.00000000000000, 0.000000000000000, 0.000000000000000 ) );
#389 = CARTESIAN_POINT( '', ( -346.000000000000, 10.0000000000000, 0.000000000000000 ) );
#390 = DIRECTION( '', ( 0.000000000000000, 0.000000000000000, 1.00000000000000 ) );
#391 = DIRECTION( '', ( 1.00000000000000, 0.000000000000000, 0.000000000000000 ) );
#392 = CARTESIAN_POINT( '', ( 346.000000000000, 10.0000000000000, 0.000000000000000 ) );
#393 = DIRECTION( '', ( 0.000000000000000, 0.000000000000000, 1.00000000000000 ) );
#394 = DIRECTION( '', ( 1.00000000000000, 0.000000000000000, 0.000000000000000 ) );
#395 = CARTESIAN_POINT( '', ( 287.000000000000, 10.0000000000000, 0.000000000000000 ) );
#396 = DIRECTION( '', ( 0.000000000000000, 0.000000000000000, 1.00000000000000 ) );
#397 = DIRECTION( '', ( 1.00000000000000, 0.000000000000000, 0.000000000000000 ) );
#398 = DIRECTION( '', ( 1.00000000000000, -6.97376271749470E-017, 0.000000000000000 ) );
#399 = DIRECTION( '', ( 0.000000000000000, -1.00000000000000, 0.000000000000000 ) );
#400 = CARTESIAN_POINT( '', ( 287.000000000000, 10.0000000000000, 136.000000000000 ) );
#401 = DIRECTION( '', ( 0.000000000000000, 0.000000000000000, -1.00000000000000 ) );
#402 = DIRECTION( '', ( 0.000000000000000, -1.00000000000000, 0.000000000000000 ) );
#403 = DIRECTION( '', ( 0.000000000000000, 0.000000000000000, -1.00000000000000 ) );
#404 = DIRECTION( '', ( 0.000000000000000, -1.00000000000000, 0.000000000000000 ) );
#405 = CARTESIAN_POINT( '', ( 346.000000000000, 10.0000000000000, 136.000000000000 ) );
#406 = DIRECTION( '', ( 0.000000000000000, 0.000000000000000, -1.00000000000000 ) );
#407 = DIRECTION( '', ( 0.000000000000000, -1.00000000000000, 0.000000000000000 ) );
#408 = CARTESIAN_POINT( '', ( -346.000000000000, 10.0000000000000, 136.000000000000 ) );
#409 = DIRECTION( '', ( 0.000000000000000, 0.000000000000000, -1.00000000000000 ) );
#410 = DIRECTION( '', ( 0.000000000000000, -1.00000000000000, 0.000000000000000 ) );
#411 = DIRECTION( '', ( 1.00000000000000, -6.97376271749470E-017, 0.000000000000000 ) );
ENDSEC;
END-ISO-10303-21;
