ISO-10303-21;
HEADER;
FILE_DESCRIPTION( ( 'Unknown' ), '1' );
FILE_NAME( 'M:/Piezas_3D/Placas_Par/G2/OS_G2_796x896x156_.stp', 'Unknown', ( 'Unknown' ), ( 'Unknown' ), 'PSStep 16.0.42', 'Unknown', '  ' );
FILE_SCHEMA( ( 'AUTOMOTIVE_DESIGN { 1 0 10303 214 1 1 1 1 }' ) );
ENDSEC;
DATA;
#1 = MECHANICAL_DESIGN_GEOMETRIC_PRESENTATION_REPRESENTATION( ' ', ( #10, #11, #12, #13, #14, #15, #16, #17, #18, #19 ), #6 );
#2 = PRODUCT_DEFINITION_CONTEXT( '', #20, 'design' );
#3 = APPLICATION_PROTOCOL_DEFINITION( 'international standard', 'automotive_design', 2001, #20 );
#4 = PRODUCT_CATEGORY_RELATIONSHIP( 'NONE', 'NONE', #21, #22 );
#5 = SHAPE_DEFINITION_REPRESENTATION( #23, #24 );
#6 =  ( GEOMETRIC_REPRESENTATION_CONTEXT( 3 )GLOBAL_UNCERTAINTY_ASSIGNED_CONTEXT( ( #27 ) )GLOBAL_UNIT_ASSIGNED_CONTEXT( ( #29, #30, #31 ) )REPRESENTATION_CONTEXT( 'NONE', 'WORKSPACE' ) );
#10 = STYLED_ITEM( '', ( #33 ), #34 );
#11 = STYLED_ITEM( '', ( #35 ), #36 );
#12 = STYLED_ITEM( '', ( #37 ), #38 );
#13 = STYLED_ITEM( '', ( #39 ), #40 );
#14 = STYLED_ITEM( '', ( #41 ), #42 );
#15 = STYLED_ITEM( '', ( #43 ), #44 );
#16 = STYLED_ITEM( '', ( #45 ), #46 );
#17 = STYLED_ITEM( '', ( #47 ), #48 );
#18 = STYLED_ITEM( '', ( #49 ), #50 );
#19 = STYLED_ITEM( '', ( #51 ), #52 );
#20 = APPLICATION_CONTEXT( 'core data for automotive mechanical design processes' );
#21 = PRODUCT_CATEGORY( 'part', 'NONE' );
#22 = PRODUCT_RELATED_PRODUCT_CATEGORY( 'detail', ' ', ( #53 ) );
#23 = PRODUCT_DEFINITION_SHAPE( 'NONE', 'NONE', #54 );
#24 = ADVANCED_BREP_SHAPE_REPRESENTATION( '1', ( #55, #56 ), #6 );
#27 = UNCERTAINTY_MEASURE_WITH_UNIT( LENGTH_MEASURE( 0.00100000000000000 ), #29, '', '' );
#29 =  ( CONVERSION_BASED_UNIT( 'MILLIMETRE', #59 )LENGTH_UNIT(  )NAMED_UNIT( #62 ) );
#30 =  ( NAMED_UNIT( #64 )PLANE_ANGLE_UNIT(  )SI_UNIT( $, .RADIAN. ) );
#31 =  ( NAMED_UNIT( #64 )SI_UNIT( $, .STERADIAN. )SOLID_ANGLE_UNIT(  ) );
#33 = PRESENTATION_STYLE_ASSIGNMENT( ( #70 ) );
#34 = ADVANCED_FACE( '', ( #71, #72 ), #73, .F. );
#35 = PRESENTATION_STYLE_ASSIGNMENT( ( #74 ) );
#36 = ADVANCED_FACE( '', ( #75 ), #76, .F. );
#37 = PRESENTATION_STYLE_ASSIGNMENT( ( #77 ) );
#38 = ADVANCED_FACE( '', ( #78 ), #79, .F. );
#39 = PRESENTATION_STYLE_ASSIGNMENT( ( #80 ) );
#40 = ADVANCED_FACE( '', ( #81 ), #82, .F. );
#41 = PRESENTATION_STYLE_ASSIGNMENT( ( #83 ) );
#42 = ADVANCED_FACE( '', ( #84 ), #85, .F. );
#43 = PRESENTATION_STYLE_ASSIGNMENT( ( #86 ) );
#44 = ADVANCED_FACE( '', ( #87, #88, #89, #90, #91 ), #92, .T. );
#45 = PRESENTATION_STYLE_ASSIGNMENT( ( #93 ) );
#46 = ADVANCED_FACE( '', ( #94, #95 ), #96, .F. );
#47 = PRESENTATION_STYLE_ASSIGNMENT( ( #97 ) );
#48 = ADVANCED_FACE( '', ( #98, #99, #100, #101, #102 ), #103, .F. );
#49 = PRESENTATION_STYLE_ASSIGNMENT( ( #104 ) );
#50 = ADVANCED_FACE( '', ( #105, #106 ), #107, .F. );
#51 = PRESENTATION_STYLE_ASSIGNMENT( ( #108 ) );
#52 = ADVANCED_FACE( '', ( #109, #110 ), #111, .F. );
#53 = PRODUCT( '1', '1', 'PART-1-DESC', ( #112 ) );
#54 = PRODUCT_DEFINITION( 'NONE', 'NONE', #113, #2 );
#55 = MANIFOLD_SOLID_BREP( '1', #114 );
#56 = AXIS2_PLACEMENT_3D( '', #115, #116, #117 );
#59 = LENGTH_MEASURE_WITH_UNIT( LENGTH_MEASURE( 1.00000000000000 ), #118 );
#62 = DIMENSIONAL_EXPONENTS( 1.00000000000000, 0.000000000000000, 0.000000000000000, 0.000000000000000, 0.000000000000000, 0.000000000000000, 0.000000000000000 );
#64 = DIMENSIONAL_EXPONENTS( 0.000000000000000, 0.000000000000000, 0.000000000000000, 0.000000000000000, 0.000000000000000, 0.000000000000000, 0.000000000000000 );
#70 = SURFACE_STYLE_USAGE( .BOTH., #119 );
#71 = FACE_OUTER_BOUND( '', #120, .T. );
#72 = FACE_OUTER_BOUND( '', #121, .T. );
#73 = CYLINDRICAL_SURFACE( '', #122, 11.0000000000000 );
#74 = SURFACE_STYLE_USAGE( .BOTH., #123 );
#75 = FACE_OUTER_BOUND( '', #124, .T. );
#76 = PLANE( '', #125 );
#77 = SURFACE_STYLE_USAGE( .BOTH., #126 );
#78 = FACE_OUTER_BOUND( '', #127, .T. );
#79 = PLANE( '', #128 );
#80 = SURFACE_STYLE_USAGE( .BOTH., #129 );
#81 = FACE_OUTER_BOUND( '', #130, .T. );
#82 = PLANE( '', #131 );
#83 = SURFACE_STYLE_USAGE( .BOTH., #132 );
#84 = FACE_OUTER_BOUND( '', #133, .T. );
#85 = PLANE( '', #134 );
#86 = SURFACE_STYLE_USAGE( .BOTH., #135 );
#87 = FACE_BOUND( '', #136, .T. );
#88 = FACE_BOUND( '', #137, .T. );
#89 = FACE_BOUND( '', #138, .T. );
#90 = FACE_BOUND( '', #139, .T. );
#91 = FACE_OUTER_BOUND( '', #140, .T. );
#92 = PLANE( '', #141 );
#93 = SURFACE_STYLE_USAGE( .BOTH., #142 );
#94 = FACE_OUTER_BOUND( '', #143, .T. );
#95 = FACE_OUTER_BOUND( '', #144, .T. );
#96 = CYLINDRICAL_SURFACE( '', #145, 27.0000000000000 );
#97 = SURFACE_STYLE_USAGE( .BOTH., #146 );
#98 = FACE_BOUND( '', #147, .T. );
#99 = FACE_BOUND( '', #148, .T. );
#100 = FACE_BOUND( '', #149, .T. );
#101 = FACE_BOUND( '', #150, .T. );
#102 = FACE_OUTER_BOUND( '', #151, .T. );
#103 = PLANE( '', #152 );
#104 = SURFACE_STYLE_USAGE( .BOTH., #153 );
#105 = FACE_OUTER_BOUND( '', #154, .T. );
#106 = FACE_OUTER_BOUND( '', #155, .T. );
#107 = CYLINDRICAL_SURFACE( '', #156, 27.0000000000000 );
#108 = SURFACE_STYLE_USAGE( .BOTH., #157 );
#109 = FACE_OUTER_BOUND( '', #158, .T. );
#110 = FACE_OUTER_BOUND( '', #159, .T. );
#111 = CYLINDRICAL_SURFACE( '', #160, 11.0000000000000 );
#112 = PRODUCT_CONTEXT( '', #20, 'mechanical' );
#113 = PRODUCT_DEFINITION_FORMATION_WITH_SPECIFIED_SOURCE( ' ', 'NONE', #53, .NOT_KNOWN. );
#114 = CLOSED_SHELL( '', ( #52, #48, #42, #44, #38, #36, #40, #34, #50, #46 ) );
#115 = CARTESIAN_POINT( '', ( 0.000000000000000, 0.000000000000000, 0.000000000000000 ) );
#116 = DIRECTION( '', ( 0.000000000000000, 0.000000000000000, 1.00000000000000 ) );
#117 = DIRECTION( '', ( 1.00000000000000, 0.000000000000000, 0.000000000000000 ) );
#118 =  ( LENGTH_UNIT(  )NAMED_UNIT( #62 )SI_UNIT( .MILLI., .METRE. ) );
#119 = SURFACE_SIDE_STYLE( '', ( #162 ) );
#120 = EDGE_LOOP( '', ( #163 ) );
#121 = EDGE_LOOP( '', ( #164 ) );
#122 = AXIS2_PLACEMENT_3D( '', #165, #166, #167 );
#123 = SURFACE_SIDE_STYLE( '', ( #168 ) );
#124 = EDGE_LOOP( '', ( #169, #170, #171, #172 ) );
#125 = AXIS2_PLACEMENT_3D( '', #173, #174, #175 );
#126 = SURFACE_SIDE_STYLE( '', ( #176 ) );
#127 = EDGE_LOOP( '', ( #177, #178, #179, #180 ) );
#128 = AXIS2_PLACEMENT_3D( '', #181, #182, #183 );
#129 = SURFACE_SIDE_STYLE( '', ( #184 ) );
#130 = EDGE_LOOP( '', ( #185, #186, #187, #188 ) );
#131 = AXIS2_PLACEMENT_3D( '', #189, #190, #191 );
#132 = SURFACE_SIDE_STYLE( '', ( #192 ) );
#133 = EDGE_LOOP( '', ( #193, #194, #195, #196 ) );
#134 = AXIS2_PLACEMENT_3D( '', #197, #198, #199 );
#135 = SURFACE_SIDE_STYLE( '', ( #200 ) );
#136 = EDGE_LOOP( '', ( #201 ) );
#137 = EDGE_LOOP( '', ( #202 ) );
#138 = EDGE_LOOP( '', ( #203 ) );
#139 = EDGE_LOOP( '', ( #204 ) );
#140 = EDGE_LOOP( '', ( #205, #206, #207, #208 ) );
#141 = AXIS2_PLACEMENT_3D( '', #209, #210, #211 );
#142 = SURFACE_SIDE_STYLE( '', ( #212 ) );
#143 = EDGE_LOOP( '', ( #213 ) );
#144 = EDGE_LOOP( '', ( #214 ) );
#145 = AXIS2_PLACEMENT_3D( '', #215, #216, #217 );
#146 = SURFACE_SIDE_STYLE( '', ( #218 ) );
#147 = EDGE_LOOP( '', ( #219 ) );
#148 = EDGE_LOOP( '', ( #220 ) );
#149 = EDGE_LOOP( '', ( #221 ) );
#150 = EDGE_LOOP( '', ( #222 ) );
#151 = EDGE_LOOP( '', ( #223, #224, #225, #226 ) );
#152 = AXIS2_PLACEMENT_3D( '', #227, #228, #229 );
#153 = SURFACE_SIDE_STYLE( '', ( #230 ) );
#154 = EDGE_LOOP( '', ( #231 ) );
#155 = EDGE_LOOP( '', ( #232 ) );
#156 = AXIS2_PLACEMENT_3D( '', #233, #234, #235 );
#157 = SURFACE_SIDE_STYLE( '', ( #236 ) );
#158 = EDGE_LOOP( '', ( #237 ) );
#159 = EDGE_LOOP( '', ( #238 ) );
#160 = AXIS2_PLACEMENT_3D( '', #239, #240, #241 );
#162 = SURFACE_STYLE_FILL_AREA( #242 );
#163 = ORIENTED_EDGE( '', *, *, #243, .F. );
#164 = ORIENTED_EDGE( '', *, *, #244, .F. );
#165 = CARTESIAN_POINT( '', ( 337.000000000000, 10.0000000000000, 156.000000000000 ) );
#166 = DIRECTION( '', ( -0.000000000000000, -0.000000000000000, 1.00000000000000 ) );
#167 = DIRECTION( '', ( 0.000000000000000, -1.00000000000000, 0.000000000000000 ) );
#168 = SURFACE_STYLE_FILL_AREA( #245 );
#169 = ORIENTED_EDGE( '', *, *, #246, .T. );
#170 = ORIENTED_EDGE( '', *, *, #247, .F. );
#171 = ORIENTED_EDGE( '', *, *, #248, .F. );
#172 = ORIENTED_EDGE( '', *, *, #249, .T. );
#173 = CARTESIAN_POINT( '', ( 448.000000000000, 42.0000000000000, 156.000000000000 ) );
#174 = DIRECTION( '', ( -3.87215061601966E-017, -1.00000000000000, 0.000000000000000 ) );
#175 = DIRECTION( '', ( 1.00000000000000, -3.87215061601966E-017, 0.000000000000000 ) );
#176 = SURFACE_STYLE_FILL_AREA( #250 );
#177 = ORIENTED_EDGE( '', *, *, #251, .T. );
#178 = ORIENTED_EDGE( '', *, *, #252, .F. );
#179 = ORIENTED_EDGE( '', *, *, #253, .F. );
#180 = ORIENTED_EDGE( '', *, *, #254, .T. );
#181 = CARTESIAN_POINT( '', ( -448.000000000000, -42.0000000000000, 156.000000000000 ) );
#182 = DIRECTION( '', ( 6.19544098563145E-017, 1.00000000000000, 0.000000000000000 ) );
#183 = DIRECTION( '', ( -1.00000000000000, 6.19544098563145E-017, 0.000000000000000 ) );
#184 = SURFACE_STYLE_FILL_AREA( #255 );
#185 = ORIENTED_EDGE( '', *, *, #256, .T. );
#186 = ORIENTED_EDGE( '', *, *, #254, .F. );
#187 = ORIENTED_EDGE( '', *, *, #257, .F. );
#188 = ORIENTED_EDGE( '', *, *, #247, .T. );
#189 = CARTESIAN_POINT( '', ( -448.000000000000, 42.0000000000000, 156.000000000000 ) );
#190 = DIRECTION( '', ( 1.00000000000000, 0.000000000000000, 0.000000000000000 ) );
#191 = DIRECTION( '', ( 0.000000000000000, 0.000000000000000, -1.00000000000000 ) );
#192 = SURFACE_STYLE_FILL_AREA( #258 );
#193 = ORIENTED_EDGE( '', *, *, #259, .T. );
#194 = ORIENTED_EDGE( '', *, *, #249, .F. );
#195 = ORIENTED_EDGE( '', *, *, #260, .F. );
#196 = ORIENTED_EDGE( '', *, *, #252, .T. );
#197 = CARTESIAN_POINT( '', ( 448.000000000000, -42.0000000000000, 156.000000000000 ) );
#198 = DIRECTION( '', ( -1.00000000000000, 0.000000000000000, 0.000000000000000 ) );
#199 = DIRECTION( '', ( 0.000000000000000, 0.000000000000000, 1.00000000000000 ) );
#200 = SURFACE_STYLE_FILL_AREA( #261 );
#201 = ORIENTED_EDGE( '', *, *, #262, .T. );
#202 = ORIENTED_EDGE( '', *, *, #263, .T. );
#203 = ORIENTED_EDGE( '', *, *, #243, .T. );
#204 = ORIENTED_EDGE( '', *, *, #264, .T. );
#205 = ORIENTED_EDGE( '', *, *, #248, .T. );
#206 = ORIENTED_EDGE( '', *, *, #257, .T. );
#207 = ORIENTED_EDGE( '', *, *, #253, .T. );
#208 = ORIENTED_EDGE( '', *, *, #260, .T. );
#209 = CARTESIAN_POINT( '', ( -448.000000000000, 42.0000000000000, 156.000000000000 ) );
#210 = DIRECTION( '', ( 0.000000000000000, 0.000000000000000, 1.00000000000000 ) );
#211 = DIRECTION( '', ( 1.00000000000000, 0.000000000000000, 0.000000000000000 ) );
#212 = SURFACE_STYLE_FILL_AREA( #265 );
#213 = ORIENTED_EDGE( '', *, *, #262, .F. );
#214 = ORIENTED_EDGE( '', *, *, #266, .F. );
#215 = CARTESIAN_POINT( '', ( -396.000000000000, 10.0000000000000, 156.000000000000 ) );
#216 = DIRECTION( '', ( -0.000000000000000, -0.000000000000000, 1.00000000000000 ) );
#217 = DIRECTION( '', ( 0.000000000000000, -1.00000000000000, 0.000000000000000 ) );
#218 = SURFACE_STYLE_FILL_AREA( #267 );
#219 = ORIENTED_EDGE( '', *, *, #266, .T. );
#220 = ORIENTED_EDGE( '', *, *, #268, .T. );
#221 = ORIENTED_EDGE( '', *, *, #244, .T. );
#222 = ORIENTED_EDGE( '', *, *, #269, .T. );
#223 = ORIENTED_EDGE( '', *, *, #246, .F. );
#224 = ORIENTED_EDGE( '', *, *, #259, .F. );
#225 = ORIENTED_EDGE( '', *, *, #251, .F. );
#226 = ORIENTED_EDGE( '', *, *, #256, .F. );
#227 = CARTESIAN_POINT( '', ( -448.000000000000, 42.0000000000000, 0.000000000000000 ) );
#228 = DIRECTION( '', ( 0.000000000000000, 0.000000000000000, 1.00000000000000 ) );
#229 = DIRECTION( '', ( 1.00000000000000, 0.000000000000000, 0.000000000000000 ) );
#230 = SURFACE_STYLE_FILL_AREA( #270 );
#231 = ORIENTED_EDGE( '', *, *, #263, .F. );
#232 = ORIENTED_EDGE( '', *, *, #268, .F. );
#233 = CARTESIAN_POINT( '', ( 396.000000000000, 10.0000000000000, 156.000000000000 ) );
#234 = DIRECTION( '', ( -0.000000000000000, -0.000000000000000, 1.00000000000000 ) );
#235 = DIRECTION( '', ( 0.000000000000000, -1.00000000000000, 0.000000000000000 ) );
#236 = SURFACE_STYLE_FILL_AREA( #271 );
#237 = ORIENTED_EDGE( '', *, *, #264, .F. );
#238 = ORIENTED_EDGE( '', *, *, #269, .F. );
#239 = CARTESIAN_POINT( '', ( -337.000000000000, 10.0000000000000, 156.000000000000 ) );
#240 = DIRECTION( '', ( -0.000000000000000, -0.000000000000000, 1.00000000000000 ) );
#241 = DIRECTION( '', ( 0.000000000000000, -1.00000000000000, 0.000000000000000 ) );
#242 = FILL_AREA_STYLE( '', ( #272 ) );
#243 = EDGE_CURVE( '', #273, #273, #274, .T. );
#244 = EDGE_CURVE( '', #275, #275, #276, .T. );
#245 = FILL_AREA_STYLE( '', ( #277 ) );
#246 = EDGE_CURVE( '', #278, #279, #280, .T. );
#247 = EDGE_CURVE( '', #281, #279, #282, .T. );
#248 = EDGE_CURVE( '', #283, #281, #284, .T. );
#249 = EDGE_CURVE( '', #283, #278, #285, .T. );
#250 = FILL_AREA_STYLE( '', ( #286 ) );
#251 = EDGE_CURVE( '', #287, #288, #289, .T. );
#252 = EDGE_CURVE( '', #290, #288, #291, .T. );
#253 = EDGE_CURVE( '', #292, #290, #293, .T. );
#254 = EDGE_CURVE( '', #292, #287, #294, .T. );
#255 = FILL_AREA_STYLE( '', ( #295 ) );
#256 = EDGE_CURVE( '', #279, #287, #296, .T. );
#257 = EDGE_CURVE( '', #281, #292, #297, .T. );
#258 = FILL_AREA_STYLE( '', ( #298 ) );
#259 = EDGE_CURVE( '', #288, #278, #299, .T. );
#260 = EDGE_CURVE( '', #290, #283, #300, .T. );
#261 = FILL_AREA_STYLE( '', ( #301 ) );
#262 = EDGE_CURVE( '', #302, #302, #303, .T. );
#263 = EDGE_CURVE( '', #304, #304, #305, .T. );
#264 = EDGE_CURVE( '', #306, #306, #307, .T. );
#265 = FILL_AREA_STYLE( '', ( #308 ) );
#266 = EDGE_CURVE( '', #309, #309, #310, .T. );
#267 = FILL_AREA_STYLE( '', ( #311 ) );
#268 = EDGE_CURVE( '', #312, #312, #313, .T. );
#269 = EDGE_CURVE( '', #314, #314, #315, .T. );
#270 = FILL_AREA_STYLE( '', ( #316 ) );
#271 = FILL_AREA_STYLE( '', ( #317 ) );
#272 = FILL_AREA_STYLE_COLOUR( '', #318 );
#273 = VERTEX_POINT( '', #319 );
#274 = CIRCLE( '', #320, 11.0000000000000 );
#275 = VERTEX_POINT( '', #321 );
#276 = CIRCLE( '', #322, 11.0000000000000 );
#277 = FILL_AREA_STYLE_COLOUR( '', #323 );
#278 = VERTEX_POINT( '', #324 );
#279 = VERTEX_POINT( '', #325 );
#280 = LINE( '', #326, #327 );
#281 = VERTEX_POINT( '', #328 );
#282 = LINE( '', #329, #330 );
#283 = VERTEX_POINT( '', #331 );
#284 = LINE( '', #332, #333 );
#285 = LINE( '', #334, #335 );
#286 = FILL_AREA_STYLE_COLOUR( '', #336 );
#287 = VERTEX_POINT( '', #337 );
#288 = VERTEX_POINT( '', #338 );
#289 = LINE( '', #339, #340 );
#290 = VERTEX_POINT( '', #341 );
#291 = LINE( '', #342, #343 );
#292 = VERTEX_POINT( '', #344 );
#293 = LINE( '', #345, #346 );
#294 = LINE( '', #347, #348 );
#295 = FILL_AREA_STYLE_COLOUR( '', #349 );
#296 = LINE( '', #350, #351 );
#297 = LINE( '', #352, #353 );
#298 = FILL_AREA_STYLE_COLOUR( '', #354 );
#299 = LINE( '', #355, #356 );
#300 = LINE( '', #357, #358 );
#301 = FILL_AREA_STYLE_COLOUR( '', #359 );
#302 = VERTEX_POINT( '', #360 );
#303 = CIRCLE( '', #361, 27.0000000000000 );
#304 = VERTEX_POINT( '', #362 );
#305 = CIRCLE( '', #363, 27.0000000000000 );
#306 = VERTEX_POINT( '', #364 );
#307 = CIRCLE( '', #365, 11.0000000000000 );
#308 = FILL_AREA_STYLE_COLOUR( '', #366 );
#309 = VERTEX_POINT( '', #367 );
#310 = CIRCLE( '', #368, 27.0000000000000 );
#311 = FILL_AREA_STYLE_COLOUR( '', #369 );
#312 = VERTEX_POINT( '', #370 );
#313 = CIRCLE( '', #371, 27.0000000000000 );
#314 = VERTEX_POINT( '', #372 );
#315 = CIRCLE( '', #373, 11.0000000000000 );
#316 = FILL_AREA_STYLE_COLOUR( '', #374 );
#317 = FILL_AREA_STYLE_COLOUR( '', #375 );
#318 = COLOUR_RGB( '', 0.752941191196442, 0.752941191196442, 0.752941191196442 );
#319 = CARTESIAN_POINT( '', ( 337.000000000000, -0.999999999999999, 156.000000000000 ) );
#320 = AXIS2_PLACEMENT_3D( '', #376, #377, #378 );
#321 = CARTESIAN_POINT( '', ( 348.000000000000, 10.0000000000000, 0.000000000000000 ) );
#322 = AXIS2_PLACEMENT_3D( '', #379, #380, #381 );
#323 = COLOUR_RGB( '', 0.752941191196442, 0.752941191196442, 0.752941191196442 );
#324 = CARTESIAN_POINT( '', ( 448.000000000000, 42.0000000000000, 0.000000000000000 ) );
#325 = CARTESIAN_POINT( '', ( -448.000000000000, 42.0000000000000, 0.000000000000000 ) );
#326 = CARTESIAN_POINT( '', ( 448.000000000000, 42.0000000000000, 0.000000000000000 ) );
#327 = VECTOR( '', #382, 1000.00000000000 );
#328 = CARTESIAN_POINT( '', ( -448.000000000000, 42.0000000000000, 156.000000000000 ) );
#329 = CARTESIAN_POINT( '', ( -448.000000000000, 42.0000000000000, 156.000000000000 ) );
#330 = VECTOR( '', #383, 1000.00000000000 );
#331 = CARTESIAN_POINT( '', ( 448.000000000000, 42.0000000000000, 156.000000000000 ) );
#332 = CARTESIAN_POINT( '', ( 448.000000000000, 42.0000000000000, 156.000000000000 ) );
#333 = VECTOR( '', #384, 1000.00000000000 );
#334 = CARTESIAN_POINT( '', ( 448.000000000000, 42.0000000000000, 156.000000000000 ) );
#335 = VECTOR( '', #385, 1000.00000000000 );
#336 = COLOUR_RGB( '', 0.752941191196442, 0.752941191196442, 0.752941191196442 );
#337 = CARTESIAN_POINT( '', ( -448.000000000000, -42.0000000000000, 0.000000000000000 ) );
#338 = CARTESIAN_POINT( '', ( 448.000000000000, -42.0000000000000, 0.000000000000000 ) );
#339 = CARTESIAN_POINT( '', ( -448.000000000000, -42.0000000000000, 0.000000000000000 ) );
#340 = VECTOR( '', #386, 1000.00000000000 );
#341 = CARTESIAN_POINT( '', ( 448.000000000000, -42.0000000000000, 156.000000000000 ) );
#342 = CARTESIAN_POINT( '', ( 448.000000000000, -42.0000000000000, 156.000000000000 ) );
#343 = VECTOR( '', #387, 1000.00000000000 );
#344 = CARTESIAN_POINT( '', ( -448.000000000000, -42.0000000000000, 156.000000000000 ) );
#345 = CARTESIAN_POINT( '', ( -448.000000000000, -42.0000000000000, 156.000000000000 ) );
#346 = VECTOR( '', #388, 1000.00000000000 );
#347 = CARTESIAN_POINT( '', ( -448.000000000000, -42.0000000000000, 156.000000000000 ) );
#348 = VECTOR( '', #389, 1000.00000000000 );
#349 = COLOUR_RGB( '', 0.752941191196442, 0.752941191196442, 0.752941191196442 );
#350 = CARTESIAN_POINT( '', ( -448.000000000000, 42.0000000000000, 0.000000000000000 ) );
#351 = VECTOR( '', #390, 1000.00000000000 );
#352 = CARTESIAN_POINT( '', ( -448.000000000000, 42.0000000000000, 156.000000000000 ) );
#353 = VECTOR( '', #391, 1000.00000000000 );
#354 = COLOUR_RGB( '', 0.752941191196442, 0.752941191196442, 0.752941191196442 );
#355 = CARTESIAN_POINT( '', ( 448.000000000000, -42.0000000000000, 0.000000000000000 ) );
#356 = VECTOR( '', #392, 1000.00000000000 );
#357 = CARTESIAN_POINT( '', ( 448.000000000000, -42.0000000000000, 156.000000000000 ) );
#358 = VECTOR( '', #393, 1000.00000000000 );
#359 = COLOUR_RGB( '', 0.752941191196442, 0.752941191196442, 0.752941191196442 );
#360 = CARTESIAN_POINT( '', ( -396.000000000000, -17.0000000000000, 156.000000000000 ) );
#361 = AXIS2_PLACEMENT_3D( '', #394, #395, #396 );
#362 = CARTESIAN_POINT( '', ( 396.000000000000, -17.0000000000000, 156.000000000000 ) );
#363 = AXIS2_PLACEMENT_3D( '', #397, #398, #399 );
#364 = CARTESIAN_POINT( '', ( -337.000000000000, -0.999999999999999, 156.000000000000 ) );
#365 = AXIS2_PLACEMENT_3D( '', #400, #401, #402 );
#366 = COLOUR_RGB( '', 0.752941191196442, 0.752941191196442, 0.752941191196442 );
#367 = CARTESIAN_POINT( '', ( -369.000000000000, 10.0000000000000, 0.000000000000000 ) );
#368 = AXIS2_PLACEMENT_3D( '', #403, #404, #405 );
#369 = COLOUR_RGB( '', 0.752941191196442, 0.752941191196442, 0.752941191196442 );
#370 = CARTESIAN_POINT( '', ( 423.000000000000, 10.0000000000000, 0.000000000000000 ) );
#371 = AXIS2_PLACEMENT_3D( '', #406, #407, #408 );
#372 = CARTESIAN_POINT( '', ( -326.000000000000, 10.0000000000000, 0.000000000000000 ) );
#373 = AXIS2_PLACEMENT_3D( '', #409, #410, #411 );
#374 = COLOUR_RGB( '', 0.752941191196442, 0.752941191196442, 0.752941191196442 );
#375 = COLOUR_RGB( '', 0.752941191196442, 0.752941191196442, 0.752941191196442 );
#376 = CARTESIAN_POINT( '', ( 337.000000000000, 10.0000000000000, 156.000000000000 ) );
#377 = DIRECTION( '', ( 0.000000000000000, 0.000000000000000, -1.00000000000000 ) );
#378 = DIRECTION( '', ( 0.000000000000000, -1.00000000000000, 0.000000000000000 ) );
#379 = CARTESIAN_POINT( '', ( 337.000000000000, 10.0000000000000, 0.000000000000000 ) );
#380 = DIRECTION( '', ( 0.000000000000000, 0.000000000000000, 1.00000000000000 ) );
#381 = DIRECTION( '', ( 1.00000000000000, 0.000000000000000, 0.000000000000000 ) );
#382 = DIRECTION( '', ( -1.00000000000000, 3.87215061601966E-017, 0.000000000000000 ) );
#383 = DIRECTION( '', ( 0.000000000000000, 0.000000000000000, -1.00000000000000 ) );
#384 = DIRECTION( '', ( -1.00000000000000, 3.87215061601966E-017, 0.000000000000000 ) );
#385 = DIRECTION( '', ( 0.000000000000000, 0.000000000000000, -1.00000000000000 ) );
#386 = DIRECTION( '', ( 1.00000000000000, -6.19544098563145E-017, 0.000000000000000 ) );
#387 = DIRECTION( '', ( 0.000000000000000, 0.000000000000000, -1.00000000000000 ) );
#388 = DIRECTION( '', ( 1.00000000000000, -6.19544098563145E-017, 0.000000000000000 ) );
#389 = DIRECTION( '', ( 0.000000000000000, 0.000000000000000, -1.00000000000000 ) );
#390 = DIRECTION( '', ( 0.000000000000000, -1.00000000000000, 0.000000000000000 ) );
#391 = DIRECTION( '', ( 0.000000000000000, -1.00000000000000, 0.000000000000000 ) );
#392 = DIRECTION( '', ( 0.000000000000000, 1.00000000000000, 0.000000000000000 ) );
#393 = DIRECTION( '', ( 0.000000000000000, 1.00000000000000, 0.000000000000000 ) );
#394 = CARTESIAN_POINT( '', ( -396.000000000000, 10.0000000000000, 156.000000000000 ) );
#395 = DIRECTION( '', ( 0.000000000000000, 0.000000000000000, -1.00000000000000 ) );
#396 = DIRECTION( '', ( 0.000000000000000, -1.00000000000000, 0.000000000000000 ) );
#397 = CARTESIAN_POINT( '', ( 396.000000000000, 10.0000000000000, 156.000000000000 ) );
#398 = DIRECTION( '', ( 0.000000000000000, 0.000000000000000, -1.00000000000000 ) );
#399 = DIRECTION( '', ( 0.000000000000000, -1.00000000000000, 0.000000000000000 ) );
#400 = CARTESIAN_POINT( '', ( -337.000000000000, 10.0000000000000, 156.000000000000 ) );
#401 = DIRECTION( '', ( 0.000000000000000, 0.000000000000000, -1.00000000000000 ) );
#402 = DIRECTION( '', ( 0.000000000000000, -1.00000000000000, 0.000000000000000 ) );
#403 = CARTESIAN_POINT( '', ( -396.000000000000, 10.0000000000000, 0.000000000000000 ) );
#404 = DIRECTION( '', ( 0.000000000000000, 0.000000000000000, 1.00000000000000 ) );
#405 = DIRECTION( '', ( 1.00000000000000, 0.000000000000000, 0.000000000000000 ) );
#406 = CARTESIAN_POINT( '', ( 396.000000000000, 10.0000000000000, 0.000000000000000 ) );
#407 = DIRECTION( '', ( 0.000000000000000, 0.000000000000000, 1.00000000000000 ) );
#408 = DIRECTION( '', ( 1.00000000000000, 0.000000000000000, 0.000000000000000 ) );
#409 = CARTESIAN_POINT( '', ( -337.000000000000, 10.0000000000000, 0.000000000000000 ) );
#410 = DIRECTION( '', ( 0.000000000000000, 0.000000000000000, 1.00000000000000 ) );
#411 = DIRECTION( '', ( 1.00000000000000, 0.000000000000000, 0.000000000000000 ) );
ENDSEC;
END-ISO-10303-21;
