ISO-10303-21;
HEADER;
FILE_DESCRIPTION( ( 'Unknown' ), '1' );
FILE_NAME( 'M:/Piezas_3D/Placas_Par/G2/OS_G2_796x996x116_.stp', 'Unknown', ( 'Unknown' ), ( 'Unknown' ), 'PSStep 16.0.42', 'Unknown', '  ' );
FILE_SCHEMA( ( 'AUTOMOTIVE_DESIGN { 1 0 10303 214 1 1 1 1 }' ) );
ENDSEC;
DATA;
#1 = MECHANICAL_DESIGN_GEOMETRIC_PRESENTATION_REPRESENTATION( ' ', ( #10, #11, #12, #13, #14, #15, #16, #17, #18, #19 ), #6 );
#2 = PRODUCT_DEFINITION_CONTEXT( '', #20, 'design' );
#3 = APPLICATION_PROTOCOL_DEFINITION( 'international standard', 'automotive_design', 2001, #20 );
#4 = PRODUCT_CATEGORY_RELATIONSHIP( 'NONE', 'NONE', #21, #22 );
#5 = SHAPE_DEFINITION_REPRESENTATION( #23, #24 );
#6 =  ( GEOMETRIC_REPRESENTATION_CONTEXT( 3 )GLOBAL_UNCERTAINTY_ASSIGNED_CONTEXT( ( #27 ) )GLOBAL_UNIT_ASSIGNED_CONTEXT( ( #29, #30, #31 ) )REPRESENTATION_CONTEXT( 'NONE', 'WORKSPACE' ) );
#10 = STYLED_ITEM( '', ( #33 ), #34 );
#11 = STYLED_ITEM( '', ( #35 ), #36 );
#12 = STYLED_ITEM( '', ( #37 ), #38 );
#13 = STYLED_ITEM( '', ( #39 ), #40 );
#14 = STYLED_ITEM( '', ( #41 ), #42 );
#15 = STYLED_ITEM( '', ( #43 ), #44 );
#16 = STYLED_ITEM( '', ( #45 ), #46 );
#17 = STYLED_ITEM( '', ( #47 ), #48 );
#18 = STYLED_ITEM( '', ( #49 ), #50 );
#19 = STYLED_ITEM( '', ( #51 ), #52 );
#20 = APPLICATION_CONTEXT( 'core data for automotive mechanical design processes' );
#21 = PRODUCT_CATEGORY( 'part', 'NONE' );
#22 = PRODUCT_RELATED_PRODUCT_CATEGORY( 'detail', ' ', ( #53 ) );
#23 = PRODUCT_DEFINITION_SHAPE( 'NONE', 'NONE', #54 );
#24 = ADVANCED_BREP_SHAPE_REPRESENTATION( '1', ( #55, #56 ), #6 );
#27 = UNCERTAINTY_MEASURE_WITH_UNIT( LENGTH_MEASURE( 0.00100000000000000 ), #29, '', '' );
#29 =  ( CONVERSION_BASED_UNIT( 'MILLIMETRE', #59 )LENGTH_UNIT(  )NAMED_UNIT( #62 ) );
#30 =  ( NAMED_UNIT( #64 )PLANE_ANGLE_UNIT(  )SI_UNIT( $, .RADIAN. ) );
#31 =  ( NAMED_UNIT( #64 )SI_UNIT( $, .STERADIAN. )SOLID_ANGLE_UNIT(  ) );
#33 = PRESENTATION_STYLE_ASSIGNMENT( ( #70 ) );
#34 = ADVANCED_FACE( '', ( #71 ), #72, .F. );
#35 = PRESENTATION_STYLE_ASSIGNMENT( ( #73 ) );
#36 = ADVANCED_FACE( '', ( #74, #75 ), #76, .F. );
#37 = PRESENTATION_STYLE_ASSIGNMENT( ( #77 ) );
#38 = ADVANCED_FACE( '', ( #78, #79, #80, #81, #82 ), #83, .T. );
#39 = PRESENTATION_STYLE_ASSIGNMENT( ( #84 ) );
#40 = ADVANCED_FACE( '', ( #85, #86 ), #87, .F. );
#41 = PRESENTATION_STYLE_ASSIGNMENT( ( #88 ) );
#42 = ADVANCED_FACE( '', ( #89 ), #90, .F. );
#43 = PRESENTATION_STYLE_ASSIGNMENT( ( #91 ) );
#44 = ADVANCED_FACE( '', ( #92, #93 ), #94, .F. );
#45 = PRESENTATION_STYLE_ASSIGNMENT( ( #95 ) );
#46 = ADVANCED_FACE( '', ( #96, #97 ), #98, .F. );
#47 = PRESENTATION_STYLE_ASSIGNMENT( ( #99 ) );
#48 = ADVANCED_FACE( '', ( #100 ), #101, .F. );
#49 = PRESENTATION_STYLE_ASSIGNMENT( ( #102 ) );
#50 = ADVANCED_FACE( '', ( #103 ), #104, .F. );
#51 = PRESENTATION_STYLE_ASSIGNMENT( ( #105 ) );
#52 = ADVANCED_FACE( '', ( #106, #107, #108, #109, #110 ), #111, .F. );
#53 = PRODUCT( '1', '1', 'PART-1-DESC', ( #112 ) );
#54 = PRODUCT_DEFINITION( 'NONE', 'NONE', #113, #2 );
#55 = MANIFOLD_SOLID_BREP( '1', #114 );
#56 = AXIS2_PLACEMENT_3D( '', #115, #116, #117 );
#59 = LENGTH_MEASURE_WITH_UNIT( LENGTH_MEASURE( 1.00000000000000 ), #118 );
#62 = DIMENSIONAL_EXPONENTS( 1.00000000000000, 0.000000000000000, 0.000000000000000, 0.000000000000000, 0.000000000000000, 0.000000000000000, 0.000000000000000 );
#64 = DIMENSIONAL_EXPONENTS( 0.000000000000000, 0.000000000000000, 0.000000000000000, 0.000000000000000, 0.000000000000000, 0.000000000000000, 0.000000000000000 );
#70 = SURFACE_STYLE_USAGE( .BOTH., #119 );
#71 = FACE_OUTER_BOUND( '', #120, .T. );
#72 = PLANE( '', #121 );
#73 = SURFACE_STYLE_USAGE( .BOTH., #122 );
#74 = FACE_OUTER_BOUND( '', #123, .T. );
#75 = FACE_OUTER_BOUND( '', #124, .T. );
#76 = CYLINDRICAL_SURFACE( '', #125, 27.0000000000000 );
#77 = SURFACE_STYLE_USAGE( .BOTH., #126 );
#78 = FACE_BOUND( '', #127, .T. );
#79 = FACE_BOUND( '', #128, .T. );
#80 = FACE_BOUND( '', #129, .T. );
#81 = FACE_BOUND( '', #130, .T. );
#82 = FACE_OUTER_BOUND( '', #131, .T. );
#83 = PLANE( '', #132 );
#84 = SURFACE_STYLE_USAGE( .BOTH., #133 );
#85 = FACE_OUTER_BOUND( '', #134, .T. );
#86 = FACE_OUTER_BOUND( '', #135, .T. );
#87 = CYLINDRICAL_SURFACE( '', #136, 11.0000000000000 );
#88 = SURFACE_STYLE_USAGE( .BOTH., #137 );
#89 = FACE_OUTER_BOUND( '', #138, .T. );
#90 = PLANE( '', #139 );
#91 = SURFACE_STYLE_USAGE( .BOTH., #140 );
#92 = FACE_OUTER_BOUND( '', #141, .T. );
#93 = FACE_OUTER_BOUND( '', #142, .T. );
#94 = CYLINDRICAL_SURFACE( '', #143, 27.0000000000000 );
#95 = SURFACE_STYLE_USAGE( .BOTH., #144 );
#96 = FACE_OUTER_BOUND( '', #145, .T. );
#97 = FACE_OUTER_BOUND( '', #146, .T. );
#98 = CYLINDRICAL_SURFACE( '', #147, 11.0000000000000 );
#99 = SURFACE_STYLE_USAGE( .BOTH., #148 );
#100 = FACE_OUTER_BOUND( '', #149, .T. );
#101 = PLANE( '', #150 );
#102 = SURFACE_STYLE_USAGE( .BOTH., #151 );
#103 = FACE_OUTER_BOUND( '', #152, .T. );
#104 = PLANE( '', #153 );
#105 = SURFACE_STYLE_USAGE( .BOTH., #154 );
#106 = FACE_BOUND( '', #155, .T. );
#107 = FACE_BOUND( '', #156, .T. );
#108 = FACE_BOUND( '', #157, .T. );
#109 = FACE_BOUND( '', #158, .T. );
#110 = FACE_OUTER_BOUND( '', #159, .T. );
#111 = PLANE( '', #160 );
#112 = PRODUCT_CONTEXT( '', #20, 'mechanical' );
#113 = PRODUCT_DEFINITION_FORMATION_WITH_SPECIFIED_SOURCE( ' ', 'NONE', #53, .NOT_KNOWN. );
#114 = CLOSED_SHELL( '', ( #46, #52, #48, #38, #34, #42, #50, #40, #36, #44 ) );
#115 = CARTESIAN_POINT( '', ( 0.000000000000000, 0.000000000000000, 0.000000000000000 ) );
#116 = DIRECTION( '', ( 0.000000000000000, 0.000000000000000, 1.00000000000000 ) );
#117 = DIRECTION( '', ( 1.00000000000000, 0.000000000000000, 0.000000000000000 ) );
#118 =  ( LENGTH_UNIT(  )NAMED_UNIT( #62 )SI_UNIT( .MILLI., .METRE. ) );
#119 = SURFACE_SIDE_STYLE( '', ( #162 ) );
#120 = EDGE_LOOP( '', ( #163, #164, #165, #166 ) );
#121 = AXIS2_PLACEMENT_3D( '', #167, #168, #169 );
#122 = SURFACE_SIDE_STYLE( '', ( #170 ) );
#123 = EDGE_LOOP( '', ( #171 ) );
#124 = EDGE_LOOP( '', ( #172 ) );
#125 = AXIS2_PLACEMENT_3D( '', #173, #174, #175 );
#126 = SURFACE_SIDE_STYLE( '', ( #176 ) );
#127 = EDGE_LOOP( '', ( #177 ) );
#128 = EDGE_LOOP( '', ( #178 ) );
#129 = EDGE_LOOP( '', ( #179 ) );
#130 = EDGE_LOOP( '', ( #180 ) );
#131 = EDGE_LOOP( '', ( #181, #182, #183, #184 ) );
#132 = AXIS2_PLACEMENT_3D( '', #185, #186, #187 );
#133 = SURFACE_SIDE_STYLE( '', ( #188 ) );
#134 = EDGE_LOOP( '', ( #189 ) );
#135 = EDGE_LOOP( '', ( #190 ) );
#136 = AXIS2_PLACEMENT_3D( '', #191, #192, #193 );
#137 = SURFACE_SIDE_STYLE( '', ( #194 ) );
#138 = EDGE_LOOP( '', ( #195, #196, #197, #198 ) );
#139 = AXIS2_PLACEMENT_3D( '', #199, #200, #201 );
#140 = SURFACE_SIDE_STYLE( '', ( #202 ) );
#141 = EDGE_LOOP( '', ( #203 ) );
#142 = EDGE_LOOP( '', ( #204 ) );
#143 = AXIS2_PLACEMENT_3D( '', #205, #206, #207 );
#144 = SURFACE_SIDE_STYLE( '', ( #208 ) );
#145 = EDGE_LOOP( '', ( #209 ) );
#146 = EDGE_LOOP( '', ( #210 ) );
#147 = AXIS2_PLACEMENT_3D( '', #211, #212, #213 );
#148 = SURFACE_SIDE_STYLE( '', ( #214 ) );
#149 = EDGE_LOOP( '', ( #215, #216, #217, #218 ) );
#150 = AXIS2_PLACEMENT_3D( '', #219, #220, #221 );
#151 = SURFACE_SIDE_STYLE( '', ( #222 ) );
#152 = EDGE_LOOP( '', ( #223, #224, #225, #226 ) );
#153 = AXIS2_PLACEMENT_3D( '', #227, #228, #229 );
#154 = SURFACE_SIDE_STYLE( '', ( #230 ) );
#155 = EDGE_LOOP( '', ( #231 ) );
#156 = EDGE_LOOP( '', ( #232 ) );
#157 = EDGE_LOOP( '', ( #233 ) );
#158 = EDGE_LOOP( '', ( #234 ) );
#159 = EDGE_LOOP( '', ( #235, #236, #237, #238 ) );
#160 = AXIS2_PLACEMENT_3D( '', #239, #240, #241 );
#162 = SURFACE_STYLE_FILL_AREA( #242 );
#163 = ORIENTED_EDGE( '', *, *, #243, .T. );
#164 = ORIENTED_EDGE( '', *, *, #244, .F. );
#165 = ORIENTED_EDGE( '', *, *, #245, .F. );
#166 = ORIENTED_EDGE( '', *, *, #246, .T. );
#167 = CARTESIAN_POINT( '', ( -498.000000000000, -42.0000000000000, 116.000000000000 ) );
#168 = DIRECTION( '', ( 5.57340875815842E-017, 1.00000000000000, 0.000000000000000 ) );
#169 = DIRECTION( '', ( -1.00000000000000, 5.57340875815842E-017, 0.000000000000000 ) );
#170 = SURFACE_STYLE_FILL_AREA( #247 );
#171 = ORIENTED_EDGE( '', *, *, #248, .F. );
#172 = ORIENTED_EDGE( '', *, *, #249, .F. );
#173 = CARTESIAN_POINT( '', ( 446.000000000000, 10.0000000000000, 116.000000000000 ) );
#174 = DIRECTION( '', ( -0.000000000000000, -0.000000000000000, 1.00000000000000 ) );
#175 = DIRECTION( '', ( 0.000000000000000, -1.00000000000000, 0.000000000000000 ) );
#176 = SURFACE_STYLE_FILL_AREA( #250 );
#177 = ORIENTED_EDGE( '', *, *, #251, .T. );
#178 = ORIENTED_EDGE( '', *, *, #248, .T. );
#179 = ORIENTED_EDGE( '', *, *, #252, .T. );
#180 = ORIENTED_EDGE( '', *, *, #253, .T. );
#181 = ORIENTED_EDGE( '', *, *, #254, .T. );
#182 = ORIENTED_EDGE( '', *, *, #255, .T. );
#183 = ORIENTED_EDGE( '', *, *, #245, .T. );
#184 = ORIENTED_EDGE( '', *, *, #256, .T. );
#185 = CARTESIAN_POINT( '', ( -498.000000000000, 42.0000000000000, 116.000000000000 ) );
#186 = DIRECTION( '', ( 0.000000000000000, 0.000000000000000, 1.00000000000000 ) );
#187 = DIRECTION( '', ( 1.00000000000000, 0.000000000000000, 0.000000000000000 ) );
#188 = SURFACE_STYLE_FILL_AREA( #257 );
#189 = ORIENTED_EDGE( '', *, *, #252, .F. );
#190 = ORIENTED_EDGE( '', *, *, #258, .F. );
#191 = CARTESIAN_POINT( '', ( 387.000000000000, 10.0000000000000, 116.000000000000 ) );
#192 = DIRECTION( '', ( -0.000000000000000, -0.000000000000000, 1.00000000000000 ) );
#193 = DIRECTION( '', ( 0.000000000000000, -1.00000000000000, 0.000000000000000 ) );
#194 = SURFACE_STYLE_FILL_AREA( #259 );
#195 = ORIENTED_EDGE( '', *, *, #260, .T. );
#196 = ORIENTED_EDGE( '', *, *, #261, .F. );
#197 = ORIENTED_EDGE( '', *, *, #254, .F. );
#198 = ORIENTED_EDGE( '', *, *, #262, .T. );
#199 = CARTESIAN_POINT( '', ( 498.000000000000, 42.0000000000000, 116.000000000000 ) );
#200 = DIRECTION( '', ( -3.48338047384901E-017, -1.00000000000000, 0.000000000000000 ) );
#201 = DIRECTION( '', ( 1.00000000000000, -3.48338047384901E-017, 0.000000000000000 ) );
#202 = SURFACE_STYLE_FILL_AREA( #263 );
#203 = ORIENTED_EDGE( '', *, *, #251, .F. );
#204 = ORIENTED_EDGE( '', *, *, #264, .F. );
#205 = CARTESIAN_POINT( '', ( -446.000000000000, 10.0000000000000, 116.000000000000 ) );
#206 = DIRECTION( '', ( -0.000000000000000, -0.000000000000000, 1.00000000000000 ) );
#207 = DIRECTION( '', ( 0.000000000000000, -1.00000000000000, 0.000000000000000 ) );
#208 = SURFACE_STYLE_FILL_AREA( #265 );
#209 = ORIENTED_EDGE( '', *, *, #253, .F. );
#210 = ORIENTED_EDGE( '', *, *, #266, .F. );
#211 = CARTESIAN_POINT( '', ( -387.000000000000, 10.0000000000000, 116.000000000000 ) );
#212 = DIRECTION( '', ( -0.000000000000000, -0.000000000000000, 1.00000000000000 ) );
#213 = DIRECTION( '', ( 0.000000000000000, -1.00000000000000, 0.000000000000000 ) );
#214 = SURFACE_STYLE_FILL_AREA( #267 );
#215 = ORIENTED_EDGE( '', *, *, #268, .T. );
#216 = ORIENTED_EDGE( '', *, *, #262, .F. );
#217 = ORIENTED_EDGE( '', *, *, #256, .F. );
#218 = ORIENTED_EDGE( '', *, *, #244, .T. );
#219 = CARTESIAN_POINT( '', ( 498.000000000000, -42.0000000000000, 116.000000000000 ) );
#220 = DIRECTION( '', ( -1.00000000000000, 0.000000000000000, 0.000000000000000 ) );
#221 = DIRECTION( '', ( 0.000000000000000, 0.000000000000000, 1.00000000000000 ) );
#222 = SURFACE_STYLE_FILL_AREA( #269 );
#223 = ORIENTED_EDGE( '', *, *, #270, .T. );
#224 = ORIENTED_EDGE( '', *, *, #246, .F. );
#225 = ORIENTED_EDGE( '', *, *, #255, .F. );
#226 = ORIENTED_EDGE( '', *, *, #261, .T. );
#227 = CARTESIAN_POINT( '', ( -498.000000000000, 42.0000000000000, 116.000000000000 ) );
#228 = DIRECTION( '', ( 1.00000000000000, 0.000000000000000, 0.000000000000000 ) );
#229 = DIRECTION( '', ( 0.000000000000000, 0.000000000000000, -1.00000000000000 ) );
#230 = SURFACE_STYLE_FILL_AREA( #271 );
#231 = ORIENTED_EDGE( '', *, *, #264, .T. );
#232 = ORIENTED_EDGE( '', *, *, #249, .T. );
#233 = ORIENTED_EDGE( '', *, *, #258, .T. );
#234 = ORIENTED_EDGE( '', *, *, #266, .T. );
#235 = ORIENTED_EDGE( '', *, *, #260, .F. );
#236 = ORIENTED_EDGE( '', *, *, #268, .F. );
#237 = ORIENTED_EDGE( '', *, *, #243, .F. );
#238 = ORIENTED_EDGE( '', *, *, #270, .F. );
#239 = CARTESIAN_POINT( '', ( -498.000000000000, 42.0000000000000, 0.000000000000000 ) );
#240 = DIRECTION( '', ( 0.000000000000000, 0.000000000000000, 1.00000000000000 ) );
#241 = DIRECTION( '', ( 1.00000000000000, 0.000000000000000, 0.000000000000000 ) );
#242 = FILL_AREA_STYLE( '', ( #272 ) );
#243 = EDGE_CURVE( '', #273, #274, #275, .T. );
#244 = EDGE_CURVE( '', #276, #274, #277, .T. );
#245 = EDGE_CURVE( '', #278, #276, #279, .T. );
#246 = EDGE_CURVE( '', #278, #273, #280, .T. );
#247 = FILL_AREA_STYLE( '', ( #281 ) );
#248 = EDGE_CURVE( '', #282, #282, #283, .T. );
#249 = EDGE_CURVE( '', #284, #284, #285, .T. );
#250 = FILL_AREA_STYLE( '', ( #286 ) );
#251 = EDGE_CURVE( '', #287, #287, #288, .T. );
#252 = EDGE_CURVE( '', #289, #289, #290, .T. );
#253 = EDGE_CURVE( '', #291, #291, #292, .T. );
#254 = EDGE_CURVE( '', #293, #294, #295, .T. );
#255 = EDGE_CURVE( '', #294, #278, #296, .T. );
#256 = EDGE_CURVE( '', #276, #293, #297, .T. );
#257 = FILL_AREA_STYLE( '', ( #298 ) );
#258 = EDGE_CURVE( '', #299, #299, #300, .T. );
#259 = FILL_AREA_STYLE( '', ( #301 ) );
#260 = EDGE_CURVE( '', #302, #303, #304, .T. );
#261 = EDGE_CURVE( '', #294, #303, #305, .T. );
#262 = EDGE_CURVE( '', #293, #302, #306, .T. );
#263 = FILL_AREA_STYLE( '', ( #307 ) );
#264 = EDGE_CURVE( '', #308, #308, #309, .T. );
#265 = FILL_AREA_STYLE( '', ( #310 ) );
#266 = EDGE_CURVE( '', #311, #311, #312, .T. );
#267 = FILL_AREA_STYLE( '', ( #313 ) );
#268 = EDGE_CURVE( '', #274, #302, #314, .T. );
#269 = FILL_AREA_STYLE( '', ( #315 ) );
#270 = EDGE_CURVE( '', #303, #273, #316, .T. );
#271 = FILL_AREA_STYLE( '', ( #317 ) );
#272 = FILL_AREA_STYLE_COLOUR( '', #318 );
#273 = VERTEX_POINT( '', #319 );
#274 = VERTEX_POINT( '', #320 );
#275 = LINE( '', #321, #322 );
#276 = VERTEX_POINT( '', #323 );
#277 = LINE( '', #324, #325 );
#278 = VERTEX_POINT( '', #326 );
#279 = LINE( '', #327, #328 );
#280 = LINE( '', #329, #330 );
#281 = FILL_AREA_STYLE_COLOUR( '', #331 );
#282 = VERTEX_POINT( '', #332 );
#283 = CIRCLE( '', #333, 27.0000000000000 );
#284 = VERTEX_POINT( '', #334 );
#285 = CIRCLE( '', #335, 27.0000000000000 );
#286 = FILL_AREA_STYLE_COLOUR( '', #336 );
#287 = VERTEX_POINT( '', #337 );
#288 = CIRCLE( '', #338, 27.0000000000000 );
#289 = VERTEX_POINT( '', #339 );
#290 = CIRCLE( '', #340, 11.0000000000000 );
#291 = VERTEX_POINT( '', #341 );
#292 = CIRCLE( '', #342, 11.0000000000000 );
#293 = VERTEX_POINT( '', #343 );
#294 = VERTEX_POINT( '', #344 );
#295 = LINE( '', #345, #346 );
#296 = LINE( '', #347, #348 );
#297 = LINE( '', #349, #350 );
#298 = FILL_AREA_STYLE_COLOUR( '', #351 );
#299 = VERTEX_POINT( '', #352 );
#300 = CIRCLE( '', #353, 11.0000000000000 );
#301 = FILL_AREA_STYLE_COLOUR( '', #354 );
#302 = VERTEX_POINT( '', #355 );
#303 = VERTEX_POINT( '', #356 );
#304 = LINE( '', #357, #358 );
#305 = LINE( '', #359, #360 );
#306 = LINE( '', #361, #362 );
#307 = FILL_AREA_STYLE_COLOUR( '', #363 );
#308 = VERTEX_POINT( '', #364 );
#309 = CIRCLE( '', #365, 27.0000000000000 );
#310 = FILL_AREA_STYLE_COLOUR( '', #366 );
#311 = VERTEX_POINT( '', #367 );
#312 = CIRCLE( '', #368, 11.0000000000000 );
#313 = FILL_AREA_STYLE_COLOUR( '', #369 );
#314 = LINE( '', #370, #371 );
#315 = FILL_AREA_STYLE_COLOUR( '', #372 );
#316 = LINE( '', #373, #374 );
#317 = FILL_AREA_STYLE_COLOUR( '', #375 );
#318 = COLOUR_RGB( '', 0.752941191196442, 0.752941191196442, 0.752941191196442 );
#319 = CARTESIAN_POINT( '', ( -498.000000000000, -42.0000000000000, 0.000000000000000 ) );
#320 = CARTESIAN_POINT( '', ( 498.000000000000, -42.0000000000000, 0.000000000000000 ) );
#321 = CARTESIAN_POINT( '', ( -498.000000000000, -42.0000000000000, 0.000000000000000 ) );
#322 = VECTOR( '', #376, 1000.00000000000 );
#323 = CARTESIAN_POINT( '', ( 498.000000000000, -42.0000000000000, 116.000000000000 ) );
#324 = CARTESIAN_POINT( '', ( 498.000000000000, -42.0000000000000, 116.000000000000 ) );
#325 = VECTOR( '', #377, 1000.00000000000 );
#326 = CARTESIAN_POINT( '', ( -498.000000000000, -42.0000000000000, 116.000000000000 ) );
#327 = CARTESIAN_POINT( '', ( -498.000000000000, -42.0000000000000, 116.000000000000 ) );
#328 = VECTOR( '', #378, 1000.00000000000 );
#329 = CARTESIAN_POINT( '', ( -498.000000000000, -42.0000000000000, 116.000000000000 ) );
#330 = VECTOR( '', #379, 1000.00000000000 );
#331 = COLOUR_RGB( '', 0.752941191196442, 0.752941191196442, 0.752941191196442 );
#332 = CARTESIAN_POINT( '', ( 446.000000000000, -17.0000000000000, 116.000000000000 ) );
#333 = AXIS2_PLACEMENT_3D( '', #380, #381, #382 );
#334 = CARTESIAN_POINT( '', ( 473.000000000000, 10.0000000000000, 0.000000000000000 ) );
#335 = AXIS2_PLACEMENT_3D( '', #383, #384, #385 );
#336 = COLOUR_RGB( '', 0.752941191196442, 0.752941191196442, 0.752941191196442 );
#337 = CARTESIAN_POINT( '', ( -446.000000000000, -17.0000000000000, 116.000000000000 ) );
#338 = AXIS2_PLACEMENT_3D( '', #386, #387, #388 );
#339 = CARTESIAN_POINT( '', ( 387.000000000000, -0.999999999999999, 116.000000000000 ) );
#340 = AXIS2_PLACEMENT_3D( '', #389, #390, #391 );
#341 = CARTESIAN_POINT( '', ( -387.000000000000, -0.999999999999999, 116.000000000000 ) );
#342 = AXIS2_PLACEMENT_3D( '', #392, #393, #394 );
#343 = CARTESIAN_POINT( '', ( 498.000000000000, 42.0000000000000, 116.000000000000 ) );
#344 = CARTESIAN_POINT( '', ( -498.000000000000, 42.0000000000000, 116.000000000000 ) );
#345 = CARTESIAN_POINT( '', ( 498.000000000000, 42.0000000000000, 116.000000000000 ) );
#346 = VECTOR( '', #395, 1000.00000000000 );
#347 = CARTESIAN_POINT( '', ( -498.000000000000, 42.0000000000000, 116.000000000000 ) );
#348 = VECTOR( '', #396, 1000.00000000000 );
#349 = CARTESIAN_POINT( '', ( 498.000000000000, -42.0000000000000, 116.000000000000 ) );
#350 = VECTOR( '', #397, 1000.00000000000 );
#351 = COLOUR_RGB( '', 0.752941191196442, 0.752941191196442, 0.752941191196442 );
#352 = CARTESIAN_POINT( '', ( 398.000000000000, 10.0000000000000, 0.000000000000000 ) );
#353 = AXIS2_PLACEMENT_3D( '', #398, #399, #400 );
#354 = COLOUR_RGB( '', 0.752941191196442, 0.752941191196442, 0.752941191196442 );
#355 = CARTESIAN_POINT( '', ( 498.000000000000, 42.0000000000000, 0.000000000000000 ) );
#356 = CARTESIAN_POINT( '', ( -498.000000000000, 42.0000000000000, 0.000000000000000 ) );
#357 = CARTESIAN_POINT( '', ( 498.000000000000, 42.0000000000000, 0.000000000000000 ) );
#358 = VECTOR( '', #401, 1000.00000000000 );
#359 = CARTESIAN_POINT( '', ( -498.000000000000, 42.0000000000000, 116.000000000000 ) );
#360 = VECTOR( '', #402, 1000.00000000000 );
#361 = CARTESIAN_POINT( '', ( 498.000000000000, 42.0000000000000, 116.000000000000 ) );
#362 = VECTOR( '', #403, 1000.00000000000 );
#363 = COLOUR_RGB( '', 0.752941191196442, 0.752941191196442, 0.752941191196442 );
#364 = CARTESIAN_POINT( '', ( -419.000000000000, 10.0000000000000, 0.000000000000000 ) );
#365 = AXIS2_PLACEMENT_3D( '', #404, #405, #406 );
#366 = COLOUR_RGB( '', 0.752941191196442, 0.752941191196442, 0.752941191196442 );
#367 = CARTESIAN_POINT( '', ( -376.000000000000, 10.0000000000000, 0.000000000000000 ) );
#368 = AXIS2_PLACEMENT_3D( '', #407, #408, #409 );
#369 = COLOUR_RGB( '', 0.752941191196442, 0.752941191196442, 0.752941191196442 );
#370 = CARTESIAN_POINT( '', ( 498.000000000000, -42.0000000000000, 0.000000000000000 ) );
#371 = VECTOR( '', #410, 1000.00000000000 );
#372 = COLOUR_RGB( '', 0.752941191196442, 0.752941191196442, 0.752941191196442 );
#373 = CARTESIAN_POINT( '', ( -498.000000000000, 42.0000000000000, 0.000000000000000 ) );
#374 = VECTOR( '', #411, 1000.00000000000 );
#375 = COLOUR_RGB( '', 0.752941191196442, 0.752941191196442, 0.752941191196442 );
#376 = DIRECTION( '', ( 1.00000000000000, -5.57340875815842E-017, 0.000000000000000 ) );
#377 = DIRECTION( '', ( 0.000000000000000, 0.000000000000000, -1.00000000000000 ) );
#378 = DIRECTION( '', ( 1.00000000000000, -5.57340875815842E-017, 0.000000000000000 ) );
#379 = DIRECTION( '', ( 0.000000000000000, 0.000000000000000, -1.00000000000000 ) );
#380 = CARTESIAN_POINT( '', ( 446.000000000000, 10.0000000000000, 116.000000000000 ) );
#381 = DIRECTION( '', ( 0.000000000000000, 0.000000000000000, -1.00000000000000 ) );
#382 = DIRECTION( '', ( 0.000000000000000, -1.00000000000000, 0.000000000000000 ) );
#383 = CARTESIAN_POINT( '', ( 446.000000000000, 10.0000000000000, 0.000000000000000 ) );
#384 = DIRECTION( '', ( 0.000000000000000, 0.000000000000000, 1.00000000000000 ) );
#385 = DIRECTION( '', ( 1.00000000000000, 0.000000000000000, 0.000000000000000 ) );
#386 = CARTESIAN_POINT( '', ( -446.000000000000, 10.0000000000000, 116.000000000000 ) );
#387 = DIRECTION( '', ( 0.000000000000000, 0.000000000000000, -1.00000000000000 ) );
#388 = DIRECTION( '', ( 0.000000000000000, -1.00000000000000, 0.000000000000000 ) );
#389 = CARTESIAN_POINT( '', ( 387.000000000000, 10.0000000000000, 116.000000000000 ) );
#390 = DIRECTION( '', ( 0.000000000000000, 0.000000000000000, -1.00000000000000 ) );
#391 = DIRECTION( '', ( 0.000000000000000, -1.00000000000000, 0.000000000000000 ) );
#392 = CARTESIAN_POINT( '', ( -387.000000000000, 10.0000000000000, 116.000000000000 ) );
#393 = DIRECTION( '', ( 0.000000000000000, 0.000000000000000, -1.00000000000000 ) );
#394 = DIRECTION( '', ( 0.000000000000000, -1.00000000000000, 0.000000000000000 ) );
#395 = DIRECTION( '', ( -1.00000000000000, 3.48338047384901E-017, 0.000000000000000 ) );
#396 = DIRECTION( '', ( 0.000000000000000, -1.00000000000000, 0.000000000000000 ) );
#397 = DIRECTION( '', ( 0.000000000000000, 1.00000000000000, 0.000000000000000 ) );
#398 = CARTESIAN_POINT( '', ( 387.000000000000, 10.0000000000000, 0.000000000000000 ) );
#399 = DIRECTION( '', ( 0.000000000000000, 0.000000000000000, 1.00000000000000 ) );
#400 = DIRECTION( '', ( 1.00000000000000, 0.000000000000000, 0.000000000000000 ) );
#401 = DIRECTION( '', ( -1.00000000000000, 3.48338047384901E-017, 0.000000000000000 ) );
#402 = DIRECTION( '', ( 0.000000000000000, 0.000000000000000, -1.00000000000000 ) );
#403 = DIRECTION( '', ( 0.000000000000000, 0.000000000000000, -1.00000000000000 ) );
#404 = CARTESIAN_POINT( '', ( -446.000000000000, 10.0000000000000, 0.000000000000000 ) );
#405 = DIRECTION( '', ( 0.000000000000000, 0.000000000000000, 1.00000000000000 ) );
#406 = DIRECTION( '', ( 1.00000000000000, 0.000000000000000, 0.000000000000000 ) );
#407 = CARTESIAN_POINT( '', ( -387.000000000000, 10.0000000000000, 0.000000000000000 ) );
#408 = DIRECTION( '', ( 0.000000000000000, 0.000000000000000, 1.00000000000000 ) );
#409 = DIRECTION( '', ( 1.00000000000000, 0.000000000000000, 0.000000000000000 ) );
#410 = DIRECTION( '', ( 0.000000000000000, 1.00000000000000, 0.000000000000000 ) );
#411 = DIRECTION( '', ( 0.000000000000000, -1.00000000000000, 0.000000000000000 ) );
ENDSEC;
END-ISO-10303-21;
