ISO-10303-21;
HEADER;
FILE_DESCRIPTION( ( 'Unknown' ), '1' );
FILE_NAME( 'M:/Piezas_3D/Placas_Par/G2/OS_G2_796x996x136_.stp', 'Unknown', ( 'Unknown' ), ( 'Unknown' ), 'PSStep 16.0.42', 'Unknown', '  ' );
FILE_SCHEMA( ( 'AUTOMOTIVE_DESIGN { 1 0 10303 214 1 1 1 1 }' ) );
ENDSEC;
DATA;
#1 = MECHANICAL_DESIGN_GEOMETRIC_PRESENTATION_REPRESENTATION( ' ', ( #10, #11, #12, #13, #14, #15, #16, #17, #18, #19 ), #6 );
#2 = PRODUCT_DEFINITION_CONTEXT( '', #20, 'design' );
#3 = APPLICATION_PROTOCOL_DEFINITION( 'international standard', 'automotive_design', 2001, #20 );
#4 = PRODUCT_CATEGORY_RELATIONSHIP( 'NONE', 'NONE', #21, #22 );
#5 = SHAPE_DEFINITION_REPRESENTATION( #23, #24 );
#6 =  ( GEOMETRIC_REPRESENTATION_CONTEXT( 3 )GLOBAL_UNCERTAINTY_ASSIGNED_CONTEXT( ( #27 ) )GLOBAL_UNIT_ASSIGNED_CONTEXT( ( #29, #30, #31 ) )REPRESENTATION_CONTEXT( 'NONE', 'WORKSPACE' ) );
#10 = STYLED_ITEM( '', ( #33 ), #34 );
#11 = STYLED_ITEM( '', ( #35 ), #36 );
#12 = STYLED_ITEM( '', ( #37 ), #38 );
#13 = STYLED_ITEM( '', ( #39 ), #40 );
#14 = STYLED_ITEM( '', ( #41 ), #42 );
#15 = STYLED_ITEM( '', ( #43 ), #44 );
#16 = STYLED_ITEM( '', ( #45 ), #46 );
#17 = STYLED_ITEM( '', ( #47 ), #48 );
#18 = STYLED_ITEM( '', ( #49 ), #50 );
#19 = STYLED_ITEM( '', ( #51 ), #52 );
#20 = APPLICATION_CONTEXT( 'core data for automotive mechanical design processes' );
#21 = PRODUCT_CATEGORY( 'part', 'NONE' );
#22 = PRODUCT_RELATED_PRODUCT_CATEGORY( 'detail', ' ', ( #53 ) );
#23 = PRODUCT_DEFINITION_SHAPE( 'NONE', 'NONE', #54 );
#24 = ADVANCED_BREP_SHAPE_REPRESENTATION( '1', ( #55, #56 ), #6 );
#27 = UNCERTAINTY_MEASURE_WITH_UNIT( LENGTH_MEASURE( 0.00100000000000000 ), #29, '', '' );
#29 =  ( CONVERSION_BASED_UNIT( 'MILLIMETRE', #59 )LENGTH_UNIT(  )NAMED_UNIT( #62 ) );
#30 =  ( NAMED_UNIT( #64 )PLANE_ANGLE_UNIT(  )SI_UNIT( $, .RADIAN. ) );
#31 =  ( NAMED_UNIT( #64 )SI_UNIT( $, .STERADIAN. )SOLID_ANGLE_UNIT(  ) );
#33 = PRESENTATION_STYLE_ASSIGNMENT( ( #70 ) );
#34 = ADVANCED_FACE( '', ( #71 ), #72, .F. );
#35 = PRESENTATION_STYLE_ASSIGNMENT( ( #73 ) );
#36 = ADVANCED_FACE( '', ( #74, #75, #76, #77, #78 ), #79, .F. );
#37 = PRESENTATION_STYLE_ASSIGNMENT( ( #80 ) );
#38 = ADVANCED_FACE( '', ( #81, #82, #83, #84, #85 ), #86, .T. );
#39 = PRESENTATION_STYLE_ASSIGNMENT( ( #87 ) );
#40 = ADVANCED_FACE( '', ( #88 ), #89, .F. );
#41 = PRESENTATION_STYLE_ASSIGNMENT( ( #90 ) );
#42 = ADVANCED_FACE( '', ( #91 ), #92, .F. );
#43 = PRESENTATION_STYLE_ASSIGNMENT( ( #93 ) );
#44 = ADVANCED_FACE( '', ( #94 ), #95, .F. );
#45 = PRESENTATION_STYLE_ASSIGNMENT( ( #96 ) );
#46 = ADVANCED_FACE( '', ( #97, #98 ), #99, .F. );
#47 = PRESENTATION_STYLE_ASSIGNMENT( ( #100 ) );
#48 = ADVANCED_FACE( '', ( #101, #102 ), #103, .F. );
#49 = PRESENTATION_STYLE_ASSIGNMENT( ( #104 ) );
#50 = ADVANCED_FACE( '', ( #105, #106 ), #107, .F. );
#51 = PRESENTATION_STYLE_ASSIGNMENT( ( #108 ) );
#52 = ADVANCED_FACE( '', ( #109, #110 ), #111, .F. );
#53 = PRODUCT( '1', '1', 'PART-1-DESC', ( #112 ) );
#54 = PRODUCT_DEFINITION( 'NONE', 'NONE', #113, #2 );
#55 = MANIFOLD_SOLID_BREP( '1', #114 );
#56 = AXIS2_PLACEMENT_3D( '', #115, #116, #117 );
#59 = LENGTH_MEASURE_WITH_UNIT( LENGTH_MEASURE( 1.00000000000000 ), #118 );
#62 = DIMENSIONAL_EXPONENTS( 1.00000000000000, 0.000000000000000, 0.000000000000000, 0.000000000000000, 0.000000000000000, 0.000000000000000, 0.000000000000000 );
#64 = DIMENSIONAL_EXPONENTS( 0.000000000000000, 0.000000000000000, 0.000000000000000, 0.000000000000000, 0.000000000000000, 0.000000000000000, 0.000000000000000 );
#70 = SURFACE_STYLE_USAGE( .BOTH., #119 );
#71 = FACE_OUTER_BOUND( '', #120, .T. );
#72 = PLANE( '', #121 );
#73 = SURFACE_STYLE_USAGE( .BOTH., #122 );
#74 = FACE_BOUND( '', #123, .T. );
#75 = FACE_BOUND( '', #124, .T. );
#76 = FACE_BOUND( '', #125, .T. );
#77 = FACE_BOUND( '', #126, .T. );
#78 = FACE_OUTER_BOUND( '', #127, .T. );
#79 = PLANE( '', #128 );
#80 = SURFACE_STYLE_USAGE( .BOTH., #129 );
#81 = FACE_BOUND( '', #130, .T. );
#82 = FACE_BOUND( '', #131, .T. );
#83 = FACE_BOUND( '', #132, .T. );
#84 = FACE_BOUND( '', #133, .T. );
#85 = FACE_OUTER_BOUND( '', #134, .T. );
#86 = PLANE( '', #135 );
#87 = SURFACE_STYLE_USAGE( .BOTH., #136 );
#88 = FACE_OUTER_BOUND( '', #137, .T. );
#89 = PLANE( '', #138 );
#90 = SURFACE_STYLE_USAGE( .BOTH., #139 );
#91 = FACE_OUTER_BOUND( '', #140, .T. );
#92 = PLANE( '', #141 );
#93 = SURFACE_STYLE_USAGE( .BOTH., #142 );
#94 = FACE_OUTER_BOUND( '', #143, .T. );
#95 = PLANE( '', #144 );
#96 = SURFACE_STYLE_USAGE( .BOTH., #145 );
#97 = FACE_OUTER_BOUND( '', #146, .T. );
#98 = FACE_OUTER_BOUND( '', #147, .T. );
#99 = CYLINDRICAL_SURFACE( '', #148, 11.0000000000000 );
#100 = SURFACE_STYLE_USAGE( .BOTH., #149 );
#101 = FACE_OUTER_BOUND( '', #150, .T. );
#102 = FACE_OUTER_BOUND( '', #151, .T. );
#103 = CYLINDRICAL_SURFACE( '', #152, 11.0000000000000 );
#104 = SURFACE_STYLE_USAGE( .BOTH., #153 );
#105 = FACE_OUTER_BOUND( '', #154, .T. );
#106 = FACE_OUTER_BOUND( '', #155, .T. );
#107 = CYLINDRICAL_SURFACE( '', #156, 27.0000000000000 );
#108 = SURFACE_STYLE_USAGE( .BOTH., #157 );
#109 = FACE_OUTER_BOUND( '', #158, .T. );
#110 = FACE_OUTER_BOUND( '', #159, .T. );
#111 = CYLINDRICAL_SURFACE( '', #160, 27.0000000000000 );
#112 = PRODUCT_CONTEXT( '', #20, 'mechanical' );
#113 = PRODUCT_DEFINITION_FORMATION_WITH_SPECIFIED_SOURCE( ' ', 'NONE', #53, .NOT_KNOWN. );
#114 = CLOSED_SHELL( '', ( #46, #36, #34, #38, #44, #42, #40, #48, #52, #50 ) );
#115 = CARTESIAN_POINT( '', ( 0.000000000000000, 0.000000000000000, 0.000000000000000 ) );
#116 = DIRECTION( '', ( 0.000000000000000, 0.000000000000000, 1.00000000000000 ) );
#117 = DIRECTION( '', ( 1.00000000000000, 0.000000000000000, 0.000000000000000 ) );
#118 =  ( LENGTH_UNIT(  )NAMED_UNIT( #62 )SI_UNIT( .MILLI., .METRE. ) );
#119 = SURFACE_SIDE_STYLE( '', ( #162 ) );
#120 = EDGE_LOOP( '', ( #163, #164, #165, #166 ) );
#121 = AXIS2_PLACEMENT_3D( '', #167, #168, #169 );
#122 = SURFACE_SIDE_STYLE( '', ( #170 ) );
#123 = EDGE_LOOP( '', ( #171 ) );
#124 = EDGE_LOOP( '', ( #172 ) );
#125 = EDGE_LOOP( '', ( #173 ) );
#126 = EDGE_LOOP( '', ( #174 ) );
#127 = EDGE_LOOP( '', ( #175, #176, #177, #178 ) );
#128 = AXIS2_PLACEMENT_3D( '', #179, #180, #181 );
#129 = SURFACE_SIDE_STYLE( '', ( #182 ) );
#130 = EDGE_LOOP( '', ( #183 ) );
#131 = EDGE_LOOP( '', ( #184 ) );
#132 = EDGE_LOOP( '', ( #185 ) );
#133 = EDGE_LOOP( '', ( #186 ) );
#134 = EDGE_LOOP( '', ( #187, #188, #189, #190 ) );
#135 = AXIS2_PLACEMENT_3D( '', #191, #192, #193 );
#136 = SURFACE_SIDE_STYLE( '', ( #194 ) );
#137 = EDGE_LOOP( '', ( #195, #196, #197, #198 ) );
#138 = AXIS2_PLACEMENT_3D( '', #199, #200, #201 );
#139 = SURFACE_SIDE_STYLE( '', ( #202 ) );
#140 = EDGE_LOOP( '', ( #203, #204, #205, #206 ) );
#141 = AXIS2_PLACEMENT_3D( '', #207, #208, #209 );
#142 = SURFACE_SIDE_STYLE( '', ( #210 ) );
#143 = EDGE_LOOP( '', ( #211, #212, #213, #214 ) );
#144 = AXIS2_PLACEMENT_3D( '', #215, #216, #217 );
#145 = SURFACE_SIDE_STYLE( '', ( #218 ) );
#146 = EDGE_LOOP( '', ( #219 ) );
#147 = EDGE_LOOP( '', ( #220 ) );
#148 = AXIS2_PLACEMENT_3D( '', #221, #222, #223 );
#149 = SURFACE_SIDE_STYLE( '', ( #224 ) );
#150 = EDGE_LOOP( '', ( #225 ) );
#151 = EDGE_LOOP( '', ( #226 ) );
#152 = AXIS2_PLACEMENT_3D( '', #227, #228, #229 );
#153 = SURFACE_SIDE_STYLE( '', ( #230 ) );
#154 = EDGE_LOOP( '', ( #231 ) );
#155 = EDGE_LOOP( '', ( #232 ) );
#156 = AXIS2_PLACEMENT_3D( '', #233, #234, #235 );
#157 = SURFACE_SIDE_STYLE( '', ( #236 ) );
#158 = EDGE_LOOP( '', ( #237 ) );
#159 = EDGE_LOOP( '', ( #238 ) );
#160 = AXIS2_PLACEMENT_3D( '', #239, #240, #241 );
#162 = SURFACE_STYLE_FILL_AREA( #242 );
#163 = ORIENTED_EDGE( '', *, *, #243, .T. );
#164 = ORIENTED_EDGE( '', *, *, #244, .F. );
#165 = ORIENTED_EDGE( '', *, *, #245, .F. );
#166 = ORIENTED_EDGE( '', *, *, #246, .T. );
#167 = CARTESIAN_POINT( '', ( 498.000000000000, -42.0000000000000, 136.000000000000 ) );
#168 = DIRECTION( '', ( -1.00000000000000, 0.000000000000000, 0.000000000000000 ) );
#169 = DIRECTION( '', ( 0.000000000000000, 0.000000000000000, 1.00000000000000 ) );
#170 = SURFACE_STYLE_FILL_AREA( #247 );
#171 = ORIENTED_EDGE( '', *, *, #248, .T. );
#172 = ORIENTED_EDGE( '', *, *, #249, .T. );
#173 = ORIENTED_EDGE( '', *, *, #250, .T. );
#174 = ORIENTED_EDGE( '', *, *, #251, .T. );
#175 = ORIENTED_EDGE( '', *, *, #252, .F. );
#176 = ORIENTED_EDGE( '', *, *, #243, .F. );
#177 = ORIENTED_EDGE( '', *, *, #253, .F. );
#178 = ORIENTED_EDGE( '', *, *, #254, .F. );
#179 = CARTESIAN_POINT( '', ( -498.000000000000, 42.0000000000000, 0.000000000000000 ) );
#180 = DIRECTION( '', ( 0.000000000000000, 0.000000000000000, 1.00000000000000 ) );
#181 = DIRECTION( '', ( 1.00000000000000, 0.000000000000000, 0.000000000000000 ) );
#182 = SURFACE_STYLE_FILL_AREA( #255 );
#183 = ORIENTED_EDGE( '', *, *, #256, .T. );
#184 = ORIENTED_EDGE( '', *, *, #257, .T. );
#185 = ORIENTED_EDGE( '', *, *, #258, .T. );
#186 = ORIENTED_EDGE( '', *, *, #259, .T. );
#187 = ORIENTED_EDGE( '', *, *, #260, .T. );
#188 = ORIENTED_EDGE( '', *, *, #261, .T. );
#189 = ORIENTED_EDGE( '', *, *, #262, .T. );
#190 = ORIENTED_EDGE( '', *, *, #245, .T. );
#191 = CARTESIAN_POINT( '', ( -498.000000000000, 42.0000000000000, 136.000000000000 ) );
#192 = DIRECTION( '', ( 0.000000000000000, 0.000000000000000, 1.00000000000000 ) );
#193 = DIRECTION( '', ( 1.00000000000000, 0.000000000000000, 0.000000000000000 ) );
#194 = SURFACE_STYLE_FILL_AREA( #263 );
#195 = ORIENTED_EDGE( '', *, *, #254, .T. );
#196 = ORIENTED_EDGE( '', *, *, #264, .F. );
#197 = ORIENTED_EDGE( '', *, *, #261, .F. );
#198 = ORIENTED_EDGE( '', *, *, #265, .T. );
#199 = CARTESIAN_POINT( '', ( -498.000000000000, 42.0000000000000, 136.000000000000 ) );
#200 = DIRECTION( '', ( 1.00000000000000, 0.000000000000000, 0.000000000000000 ) );
#201 = DIRECTION( '', ( 0.000000000000000, 0.000000000000000, -1.00000000000000 ) );
#202 = SURFACE_STYLE_FILL_AREA( #266 );
#203 = ORIENTED_EDGE( '', *, *, #252, .T. );
#204 = ORIENTED_EDGE( '', *, *, #265, .F. );
#205 = ORIENTED_EDGE( '', *, *, #260, .F. );
#206 = ORIENTED_EDGE( '', *, *, #244, .T. );
#207 = CARTESIAN_POINT( '', ( 498.000000000000, 42.0000000000000, 136.000000000000 ) );
#208 = DIRECTION( '', ( -3.48338047384901E-017, -1.00000000000000, 0.000000000000000 ) );
#209 = DIRECTION( '', ( 1.00000000000000, -3.48338047384901E-017, 0.000000000000000 ) );
#210 = SURFACE_STYLE_FILL_AREA( #267 );
#211 = ORIENTED_EDGE( '', *, *, #253, .T. );
#212 = ORIENTED_EDGE( '', *, *, #246, .F. );
#213 = ORIENTED_EDGE( '', *, *, #262, .F. );
#214 = ORIENTED_EDGE( '', *, *, #264, .T. );
#215 = CARTESIAN_POINT( '', ( -498.000000000000, -42.0000000000000, 136.000000000000 ) );
#216 = DIRECTION( '', ( 5.57340875815842E-017, 1.00000000000000, 0.000000000000000 ) );
#217 = DIRECTION( '', ( -1.00000000000000, 5.57340875815842E-017, 0.000000000000000 ) );
#218 = SURFACE_STYLE_FILL_AREA( #268 );
#219 = ORIENTED_EDGE( '', *, *, #259, .F. );
#220 = ORIENTED_EDGE( '', *, *, #251, .F. );
#221 = CARTESIAN_POINT( '', ( -387.000000000000, 10.0000000000000, 136.000000000000 ) );
#222 = DIRECTION( '', ( -0.000000000000000, -0.000000000000000, 1.00000000000000 ) );
#223 = DIRECTION( '', ( 0.000000000000000, -1.00000000000000, 0.000000000000000 ) );
#224 = SURFACE_STYLE_FILL_AREA( #269 );
#225 = ORIENTED_EDGE( '', *, *, #258, .F. );
#226 = ORIENTED_EDGE( '', *, *, #250, .F. );
#227 = CARTESIAN_POINT( '', ( 387.000000000000, 10.0000000000000, 136.000000000000 ) );
#228 = DIRECTION( '', ( -0.000000000000000, -0.000000000000000, 1.00000000000000 ) );
#229 = DIRECTION( '', ( 0.000000000000000, -1.00000000000000, 0.000000000000000 ) );
#230 = SURFACE_STYLE_FILL_AREA( #270 );
#231 = ORIENTED_EDGE( '', *, *, #256, .F. );
#232 = ORIENTED_EDGE( '', *, *, #248, .F. );
#233 = CARTESIAN_POINT( '', ( -446.000000000000, 10.0000000000000, 136.000000000000 ) );
#234 = DIRECTION( '', ( -0.000000000000000, -0.000000000000000, 1.00000000000000 ) );
#235 = DIRECTION( '', ( 0.000000000000000, -1.00000000000000, 0.000000000000000 ) );
#236 = SURFACE_STYLE_FILL_AREA( #271 );
#237 = ORIENTED_EDGE( '', *, *, #257, .F. );
#238 = ORIENTED_EDGE( '', *, *, #249, .F. );
#239 = CARTESIAN_POINT( '', ( 446.000000000000, 10.0000000000000, 136.000000000000 ) );
#240 = DIRECTION( '', ( -0.000000000000000, -0.000000000000000, 1.00000000000000 ) );
#241 = DIRECTION( '', ( 0.000000000000000, -1.00000000000000, 0.000000000000000 ) );
#242 = FILL_AREA_STYLE( '', ( #272 ) );
#243 = EDGE_CURVE( '', #273, #274, #275, .T. );
#244 = EDGE_CURVE( '', #276, #274, #277, .T. );
#245 = EDGE_CURVE( '', #278, #276, #279, .T. );
#246 = EDGE_CURVE( '', #278, #273, #280, .T. );
#247 = FILL_AREA_STYLE( '', ( #281 ) );
#248 = EDGE_CURVE( '', #282, #282, #283, .T. );
#249 = EDGE_CURVE( '', #284, #284, #285, .T. );
#250 = EDGE_CURVE( '', #286, #286, #287, .T. );
#251 = EDGE_CURVE( '', #288, #288, #289, .T. );
#252 = EDGE_CURVE( '', #274, #290, #291, .T. );
#253 = EDGE_CURVE( '', #292, #273, #293, .T. );
#254 = EDGE_CURVE( '', #290, #292, #294, .T. );
#255 = FILL_AREA_STYLE( '', ( #295 ) );
#256 = EDGE_CURVE( '', #296, #296, #297, .T. );
#257 = EDGE_CURVE( '', #298, #298, #299, .T. );
#258 = EDGE_CURVE( '', #300, #300, #301, .T. );
#259 = EDGE_CURVE( '', #302, #302, #303, .T. );
#260 = EDGE_CURVE( '', #276, #304, #305, .T. );
#261 = EDGE_CURVE( '', #304, #306, #307, .T. );
#262 = EDGE_CURVE( '', #306, #278, #308, .T. );
#263 = FILL_AREA_STYLE( '', ( #309 ) );
#264 = EDGE_CURVE( '', #306, #292, #310, .T. );
#265 = EDGE_CURVE( '', #304, #290, #311, .T. );
#266 = FILL_AREA_STYLE( '', ( #312 ) );
#267 = FILL_AREA_STYLE( '', ( #313 ) );
#268 = FILL_AREA_STYLE( '', ( #314 ) );
#269 = FILL_AREA_STYLE( '', ( #315 ) );
#270 = FILL_AREA_STYLE( '', ( #316 ) );
#271 = FILL_AREA_STYLE( '', ( #317 ) );
#272 = FILL_AREA_STYLE_COLOUR( '', #318 );
#273 = VERTEX_POINT( '', #319 );
#274 = VERTEX_POINT( '', #320 );
#275 = LINE( '', #321, #322 );
#276 = VERTEX_POINT( '', #323 );
#277 = LINE( '', #324, #325 );
#278 = VERTEX_POINT( '', #326 );
#279 = LINE( '', #327, #328 );
#280 = LINE( '', #329, #330 );
#281 = FILL_AREA_STYLE_COLOUR( '', #331 );
#282 = VERTEX_POINT( '', #332 );
#283 = CIRCLE( '', #333, 27.0000000000000 );
#284 = VERTEX_POINT( '', #334 );
#285 = CIRCLE( '', #335, 27.0000000000000 );
#286 = VERTEX_POINT( '', #336 );
#287 = CIRCLE( '', #337, 11.0000000000000 );
#288 = VERTEX_POINT( '', #338 );
#289 = CIRCLE( '', #339, 11.0000000000000 );
#290 = VERTEX_POINT( '', #340 );
#291 = LINE( '', #341, #342 );
#292 = VERTEX_POINT( '', #343 );
#293 = LINE( '', #344, #345 );
#294 = LINE( '', #346, #347 );
#295 = FILL_AREA_STYLE_COLOUR( '', #348 );
#296 = VERTEX_POINT( '', #349 );
#297 = CIRCLE( '', #350, 27.0000000000000 );
#298 = VERTEX_POINT( '', #351 );
#299 = CIRCLE( '', #352, 27.0000000000000 );
#300 = VERTEX_POINT( '', #353 );
#301 = CIRCLE( '', #354, 11.0000000000000 );
#302 = VERTEX_POINT( '', #355 );
#303 = CIRCLE( '', #356, 11.0000000000000 );
#304 = VERTEX_POINT( '', #357 );
#305 = LINE( '', #358, #359 );
#306 = VERTEX_POINT( '', #360 );
#307 = LINE( '', #361, #362 );
#308 = LINE( '', #363, #364 );
#309 = FILL_AREA_STYLE_COLOUR( '', #365 );
#310 = LINE( '', #366, #367 );
#311 = LINE( '', #368, #369 );
#312 = FILL_AREA_STYLE_COLOUR( '', #370 );
#313 = FILL_AREA_STYLE_COLOUR( '', #371 );
#314 = FILL_AREA_STYLE_COLOUR( '', #372 );
#315 = FILL_AREA_STYLE_COLOUR( '', #373 );
#316 = FILL_AREA_STYLE_COLOUR( '', #374 );
#317 = FILL_AREA_STYLE_COLOUR( '', #375 );
#318 = COLOUR_RGB( '', 0.752941191196442, 0.752941191196442, 0.752941191196442 );
#319 = CARTESIAN_POINT( '', ( 498.000000000000, -42.0000000000000, 0.000000000000000 ) );
#320 = CARTESIAN_POINT( '', ( 498.000000000000, 42.0000000000000, 0.000000000000000 ) );
#321 = CARTESIAN_POINT( '', ( 498.000000000000, -42.0000000000000, 0.000000000000000 ) );
#322 = VECTOR( '', #376, 1000.00000000000 );
#323 = CARTESIAN_POINT( '', ( 498.000000000000, 42.0000000000000, 136.000000000000 ) );
#324 = CARTESIAN_POINT( '', ( 498.000000000000, 42.0000000000000, 136.000000000000 ) );
#325 = VECTOR( '', #377, 1000.00000000000 );
#326 = CARTESIAN_POINT( '', ( 498.000000000000, -42.0000000000000, 136.000000000000 ) );
#327 = CARTESIAN_POINT( '', ( 498.000000000000, -42.0000000000000, 136.000000000000 ) );
#328 = VECTOR( '', #378, 1000.00000000000 );
#329 = CARTESIAN_POINT( '', ( 498.000000000000, -42.0000000000000, 136.000000000000 ) );
#330 = VECTOR( '', #379, 1000.00000000000 );
#331 = COLOUR_RGB( '', 0.752941191196442, 0.752941191196442, 0.752941191196442 );
#332 = CARTESIAN_POINT( '', ( -419.000000000000, 10.0000000000000, 0.000000000000000 ) );
#333 = AXIS2_PLACEMENT_3D( '', #380, #381, #382 );
#334 = CARTESIAN_POINT( '', ( 473.000000000000, 10.0000000000000, 0.000000000000000 ) );
#335 = AXIS2_PLACEMENT_3D( '', #383, #384, #385 );
#336 = CARTESIAN_POINT( '', ( 398.000000000000, 10.0000000000000, 0.000000000000000 ) );
#337 = AXIS2_PLACEMENT_3D( '', #386, #387, #388 );
#338 = CARTESIAN_POINT( '', ( -376.000000000000, 10.0000000000000, 0.000000000000000 ) );
#339 = AXIS2_PLACEMENT_3D( '', #389, #390, #391 );
#340 = CARTESIAN_POINT( '', ( -498.000000000000, 42.0000000000000, 0.000000000000000 ) );
#341 = CARTESIAN_POINT( '', ( 498.000000000000, 42.0000000000000, 0.000000000000000 ) );
#342 = VECTOR( '', #392, 1000.00000000000 );
#343 = CARTESIAN_POINT( '', ( -498.000000000000, -42.0000000000000, 0.000000000000000 ) );
#344 = CARTESIAN_POINT( '', ( -498.000000000000, -42.0000000000000, 0.000000000000000 ) );
#345 = VECTOR( '', #393, 1000.00000000000 );
#346 = CARTESIAN_POINT( '', ( -498.000000000000, 42.0000000000000, 0.000000000000000 ) );
#347 = VECTOR( '', #394, 1000.00000000000 );
#348 = COLOUR_RGB( '', 0.752941191196442, 0.752941191196442, 0.752941191196442 );
#349 = CARTESIAN_POINT( '', ( -446.000000000000, -17.0000000000000, 136.000000000000 ) );
#350 = AXIS2_PLACEMENT_3D( '', #395, #396, #397 );
#351 = CARTESIAN_POINT( '', ( 446.000000000000, -17.0000000000000, 136.000000000000 ) );
#352 = AXIS2_PLACEMENT_3D( '', #398, #399, #400 );
#353 = CARTESIAN_POINT( '', ( 387.000000000000, -0.999999999999999, 136.000000000000 ) );
#354 = AXIS2_PLACEMENT_3D( '', #401, #402, #403 );
#355 = CARTESIAN_POINT( '', ( -387.000000000000, -0.999999999999999, 136.000000000000 ) );
#356 = AXIS2_PLACEMENT_3D( '', #404, #405, #406 );
#357 = CARTESIAN_POINT( '', ( -498.000000000000, 42.0000000000000, 136.000000000000 ) );
#358 = CARTESIAN_POINT( '', ( 498.000000000000, 42.0000000000000, 136.000000000000 ) );
#359 = VECTOR( '', #407, 1000.00000000000 );
#360 = CARTESIAN_POINT( '', ( -498.000000000000, -42.0000000000000, 136.000000000000 ) );
#361 = CARTESIAN_POINT( '', ( -498.000000000000, 42.0000000000000, 136.000000000000 ) );
#362 = VECTOR( '', #408, 1000.00000000000 );
#363 = CARTESIAN_POINT( '', ( -498.000000000000, -42.0000000000000, 136.000000000000 ) );
#364 = VECTOR( '', #409, 1000.00000000000 );
#365 = COLOUR_RGB( '', 0.752941191196442, 0.752941191196442, 0.752941191196442 );
#366 = CARTESIAN_POINT( '', ( -498.000000000000, -42.0000000000000, 136.000000000000 ) );
#367 = VECTOR( '', #410, 1000.00000000000 );
#368 = CARTESIAN_POINT( '', ( -498.000000000000, 42.0000000000000, 136.000000000000 ) );
#369 = VECTOR( '', #411, 1000.00000000000 );
#370 = COLOUR_RGB( '', 0.752941191196442, 0.752941191196442, 0.752941191196442 );
#371 = COLOUR_RGB( '', 0.752941191196442, 0.752941191196442, 0.752941191196442 );
#372 = COLOUR_RGB( '', 0.752941191196442, 0.752941191196442, 0.752941191196442 );
#373 = COLOUR_RGB( '', 0.752941191196442, 0.752941191196442, 0.752941191196442 );
#374 = COLOUR_RGB( '', 0.752941191196442, 0.752941191196442, 0.752941191196442 );
#375 = COLOUR_RGB( '', 0.752941191196442, 0.752941191196442, 0.752941191196442 );
#376 = DIRECTION( '', ( 0.000000000000000, 1.00000000000000, 0.000000000000000 ) );
#377 = DIRECTION( '', ( 0.000000000000000, 0.000000000000000, -1.00000000000000 ) );
#378 = DIRECTION( '', ( 0.000000000000000, 1.00000000000000, 0.000000000000000 ) );
#379 = DIRECTION( '', ( 0.000000000000000, 0.000000000000000, -1.00000000000000 ) );
#380 = CARTESIAN_POINT( '', ( -446.000000000000, 10.0000000000000, 0.000000000000000 ) );
#381 = DIRECTION( '', ( 0.000000000000000, 0.000000000000000, 1.00000000000000 ) );
#382 = DIRECTION( '', ( 1.00000000000000, 0.000000000000000, 0.000000000000000 ) );
#383 = CARTESIAN_POINT( '', ( 446.000000000000, 10.0000000000000, 0.000000000000000 ) );
#384 = DIRECTION( '', ( 0.000000000000000, 0.000000000000000, 1.00000000000000 ) );
#385 = DIRECTION( '', ( 1.00000000000000, 0.000000000000000, 0.000000000000000 ) );
#386 = CARTESIAN_POINT( '', ( 387.000000000000, 10.0000000000000, 0.000000000000000 ) );
#387 = DIRECTION( '', ( 0.000000000000000, 0.000000000000000, 1.00000000000000 ) );
#388 = DIRECTION( '', ( 1.00000000000000, 0.000000000000000, 0.000000000000000 ) );
#389 = CARTESIAN_POINT( '', ( -387.000000000000, 10.0000000000000, 0.000000000000000 ) );
#390 = DIRECTION( '', ( 0.000000000000000, 0.000000000000000, 1.00000000000000 ) );
#391 = DIRECTION( '', ( 1.00000000000000, 0.000000000000000, 0.000000000000000 ) );
#392 = DIRECTION( '', ( -1.00000000000000, 3.48338047384901E-017, 0.000000000000000 ) );
#393 = DIRECTION( '', ( 1.00000000000000, -5.57340875815842E-017, 0.000000000000000 ) );
#394 = DIRECTION( '', ( 0.000000000000000, -1.00000000000000, 0.000000000000000 ) );
#395 = CARTESIAN_POINT( '', ( -446.000000000000, 10.0000000000000, 136.000000000000 ) );
#396 = DIRECTION( '', ( 0.000000000000000, 0.000000000000000, -1.00000000000000 ) );
#397 = DIRECTION( '', ( 0.000000000000000, -1.00000000000000, 0.000000000000000 ) );
#398 = CARTESIAN_POINT( '', ( 446.000000000000, 10.0000000000000, 136.000000000000 ) );
#399 = DIRECTION( '', ( 0.000000000000000, 0.000000000000000, -1.00000000000000 ) );
#400 = DIRECTION( '', ( 0.000000000000000, -1.00000000000000, 0.000000000000000 ) );
#401 = CARTESIAN_POINT( '', ( 387.000000000000, 10.0000000000000, 136.000000000000 ) );
#402 = DIRECTION( '', ( 0.000000000000000, 0.000000000000000, -1.00000000000000 ) );
#403 = DIRECTION( '', ( 0.000000000000000, -1.00000000000000, 0.000000000000000 ) );
#404 = CARTESIAN_POINT( '', ( -387.000000000000, 10.0000000000000, 136.000000000000 ) );
#405 = DIRECTION( '', ( 0.000000000000000, 0.000000000000000, -1.00000000000000 ) );
#406 = DIRECTION( '', ( 0.000000000000000, -1.00000000000000, 0.000000000000000 ) );
#407 = DIRECTION( '', ( -1.00000000000000, 3.48338047384901E-017, 0.000000000000000 ) );
#408 = DIRECTION( '', ( 0.000000000000000, -1.00000000000000, 0.000000000000000 ) );
#409 = DIRECTION( '', ( 1.00000000000000, -5.57340875815842E-017, 0.000000000000000 ) );
#410 = DIRECTION( '', ( 0.000000000000000, 0.000000000000000, -1.00000000000000 ) );
#411 = DIRECTION( '', ( 0.000000000000000, 0.000000000000000, -1.00000000000000 ) );
ENDSEC;
END-ISO-10303-21;
