ISO-10303-21;
HEADER;
FILE_DESCRIPTION( ( 'Unknown' ), '1' );
FILE_NAME( 'C:/Documents and Settings/BEATRIZ/Escritorio/ORYMO/PLACAS PARA MOLDES OS/PLACAS OS-J1/OS_J1_246x346x046_/OS_J1_246x346x046_.stp', 'Unknown', ( 'Unknown' ), ( 'Unknown' ), 'XStep 1.0', 'Unknown', ' ' );
FILE_SCHEMA( ( 'CONFIG_CONTROL_DESIGN' ) );
ENDSEC;
DATA;
#1 = DESIGN_CONTEXT( '', #27, 'design' );
#2 = APPLICATION_PROTOCOL_DEFINITION( 'INTERNATIONAL STANDARD', 'config_control_design', 1994, #27 );
#3 = PRODUCT_CATEGORY_RELATIONSHIP( 'NONE', 'NONE', #28, #29 );
#4 = DATE_AND_TIME( #30, #31 );
#5 = DATE_TIME_ROLE( 'creation_date' );
#6 = DATE_TIME_ROLE( 'classification_date' );
#7 = PERSON_AND_ORGANIZATION_ROLE( 'creator' );
#8 = PERSON_AND_ORGANIZATION_ROLE( 'design_supplier' );
#9 = PERSON_AND_ORGANIZATION_ROLE( 'classification_officer' );
#10 = PERSON_AND_ORGANIZATION_ROLE( 'design_owner' );
#11 = APPROVAL_PERSON_ORGANIZATION( #32, #33, #34 );
#12 = APPROVAL_DATE_TIME( #4, #33 );
#13 = CC_DESIGN_APPROVAL( #33, ( #35, #36, #37 ) );
#14 = CC_DESIGN_DATE_AND_TIME_ASSIGNMENT( #4, #5, ( #37 ) );
#15 = CC_DESIGN_DATE_AND_TIME_ASSIGNMENT( #4, #6, ( #35 ) );
#16 = CC_DESIGN_PERSON_AND_ORGANIZATION_ASSIGNMENT( #32, #10, ( #38 ) );
#17 = CC_DESIGN_PERSON_AND_ORGANIZATION_ASSIGNMENT( #32, #7, ( #37 ) );
#18 = CC_DESIGN_PERSON_AND_ORGANIZATION_ASSIGNMENT( #32, #7, ( #36 ) );
#19 = CC_DESIGN_PERSON_AND_ORGANIZATION_ASSIGNMENT( #32, #8, ( #36 ) );
#20 = CC_DESIGN_SECURITY_CLASSIFICATION( #35, ( #36 ) );
#21 = CC_DESIGN_PERSON_AND_ORGANIZATION_ASSIGNMENT( #32, #9, ( #35 ) );
#22 = SHAPE_DEFINITION_REPRESENTATION( #39, #40 );
#23 =  ( GEOMETRIC_REPRESENTATION_CONTEXT( 3 )GLOBAL_UNCERTAINTY_ASSIGNED_CONTEXT( ( #43 ) )GLOBAL_UNIT_ASSIGNED_CONTEXT( ( #45, #46, #47 ) )REPRESENTATION_CONTEXT( 'NONE', 'WORKSPACE' ) );
#27 = APPLICATION_CONTEXT( 'CONFIGURATION CONTROLLED 3D DESIGNS OF MECHANICAL PARTS AND ASSEMBLIES' );
#28 = PRODUCT_CATEGORY( 'part', 'NONE' );
#29 = PRODUCT_RELATED_PRODUCT_CATEGORY( 'detail', ' ', ( #38 ) );
#30 = CALENDAR_DATE( 2004, 8, 5 );
#31 = LOCAL_TIME( 19, 32, 5.00000000000000, #49 );
#32 = PERSON_AND_ORGANIZATION( #50, #51 );
#33 = APPROVAL( #52, 'SOLID MODEL' );
#34 = APPROVAL_ROLE( 'APPROVED' );
#35 = SECURITY_CLASSIFICATION( '', '', #53 );
#36 = PRODUCT_DEFINITION_FORMATION_WITH_SPECIFIED_SOURCE( ' ', 'NONE', #38, .NOT_KNOWN. );
#37 = PRODUCT_DEFINITION( 'NONE', 'NONE', #36, #1 );
#38 = PRODUCT( '1', '1', 'PART-1-DESC', ( #54 ) );
#39 = PRODUCT_DEFINITION_SHAPE( 'NONE', 'NONE', #37 );
#40 = ADVANCED_BREP_SHAPE_REPRESENTATION( '1', ( #55, #56 ), #23 );
#43 = UNCERTAINTY_MEASURE_WITH_UNIT( LENGTH_MEASURE( 0.00100000000000000 ), #45, '', '' );
#45 =  ( CONVERSION_BASED_UNIT( 'MILLIMETRE', #59 )LENGTH_UNIT(  )NAMED_UNIT( #62 ) );
#46 =  ( CONVERSION_BASED_UNIT( 'RADIAN', #64 )NAMED_UNIT( #66 )PLANE_ANGLE_UNIT(  ) );
#47 =  ( NAMED_UNIT( #66 )SOLID_ANGLE_UNIT(  )SI_UNIT( $, .STERADIAN. ) );
#49 = COORDINATED_UNIVERSAL_TIME_OFFSET( 1, 0, .AHEAD. );
#50 = PERSON( '', 'UNSPECIFIED', $, $, $, $ );
#51 = ORGANIZATION( 'UNSPECIFIED', 'UNSPECIFIED', 'UNSPECIFIED' );
#52 = APPROVAL_STATUS( 'approved' );
#53 = SECURITY_CLASSIFICATION_LEVEL( 'unclassified' );
#54 = MECHANICAL_CONTEXT( '', #27, 'mechanical' );
#55 = MANIFOLD_SOLID_BREP( '1', #71 );
#56 = AXIS2_PLACEMENT_3D( '', #72, #73, #74 );
#59 = LENGTH_MEASURE_WITH_UNIT( LENGTH_MEASURE( 1.00000000000000 ), #75 );
#62 = DIMENSIONAL_EXPONENTS( 1.00000000000000, 0.000000000000000, 0.000000000000000, 0.000000000000000, 0.000000000000000, 0.000000000000000, 0.000000000000000 );
#64 = PLANE_ANGLE_MEASURE_WITH_UNIT( PLANE_ANGLE_MEASURE( 1.00000000000000 ), #76 );
#66 = DIMENSIONAL_EXPONENTS( 0.000000000000000, 0.000000000000000, 0.000000000000000, 0.000000000000000, 0.000000000000000, 0.000000000000000, 0.000000000000000 );
#71 = CLOSED_SHELL( '', ( #77, #78, #79, #80, #81, #82, #83, #84, #85, #86 ) );
#72 = CARTESIAN_POINT( '', ( 0.000000000000000, 0.000000000000000, 0.000000000000000 ) );
#73 = DIRECTION( '', ( 0.000000000000000, 0.000000000000000, 1.00000000000000 ) );
#74 = DIRECTION( '', ( 1.00000000000000, 0.000000000000000, 0.000000000000000 ) );
#75 =  ( NAMED_UNIT( #62 )LENGTH_UNIT(  )SI_UNIT( .MILLI., .METRE. ) );
#76 =  ( NAMED_UNIT( #66 )PLANE_ANGLE_UNIT(  )SI_UNIT( $, .RADIAN. ) );
#77 = ADVANCED_FACE( '', ( #89 ), #90, .F. );
#78 = ADVANCED_FACE( '', ( #91, #92, #93, #94, #95 ), #96, .T. );
#79 = ADVANCED_FACE( '', ( #97 ), #98, .F. );
#80 = ADVANCED_FACE( '', ( #99 ), #100, .F. );
#81 = ADVANCED_FACE( '', ( #101 ), #102, .F. );
#82 = ADVANCED_FACE( '', ( #103, #104, #105, #106, #107 ), #108, .F. );
#83 = ADVANCED_FACE( '', ( #109, #110 ), #111, .F. );
#84 = ADVANCED_FACE( '', ( #112, #113 ), #114, .F. );
#85 = ADVANCED_FACE( '', ( #115, #116 ), #117, .F. );
#86 = ADVANCED_FACE( '', ( #118, #119 ), #120, .F. );
#89 = FACE_OUTER_BOUND( '', #121, .T. );
#90 = PLANE( '', #122 );
#91 = FACE_BOUND( '', #123, .T. );
#92 = FACE_BOUND( '', #124, .T. );
#93 = FACE_BOUND( '', #125, .T. );
#94 = FACE_BOUND( '', #126, .T. );
#95 = FACE_OUTER_BOUND( '', #127, .T. );
#96 = PLANE( '', #128 );
#97 = FACE_OUTER_BOUND( '', #129, .T. );
#98 = PLANE( '', #130 );
#99 = FACE_OUTER_BOUND( '', #131, .T. );
#100 = PLANE( '', #132 );
#101 = FACE_OUTER_BOUND( '', #133, .T. );
#102 = PLANE( '', #134 );
#103 = FACE_BOUND( '', #135, .T. );
#104 = FACE_BOUND( '', #136, .T. );
#105 = FACE_BOUND( '', #137, .T. );
#106 = FACE_BOUND( '', #138, .T. );
#107 = FACE_OUTER_BOUND( '', #139, .T. );
#108 = PLANE( '', #140 );
#109 = FACE_OUTER_BOUND( '', #141, .T. );
#110 = FACE_OUTER_BOUND( '', #142, .T. );
#111 = CYLINDRICAL_SURFACE( '', #143, 7.00000000000000 );
#112 = FACE_OUTER_BOUND( '', #144, .T. );
#113 = FACE_OUTER_BOUND( '', #145, .T. );
#114 = CYLINDRICAL_SURFACE( '', #146, 7.00000000000000 );
#115 = FACE_OUTER_BOUND( '', #147, .T. );
#116 = FACE_OUTER_BOUND( '', #148, .T. );
#117 = CYLINDRICAL_SURFACE( '', #149, 7.00000000000000 );
#118 = FACE_OUTER_BOUND( '', #150, .T. );
#119 = FACE_OUTER_BOUND( '', #151, .T. );
#120 = CYLINDRICAL_SURFACE( '', #152, 7.00000000000000 );
#121 = EDGE_LOOP( '', ( #153, #154, #155, #156 ) );
#122 = AXIS2_PLACEMENT_3D( '', #157, #158, #159 );
#123 = EDGE_LOOP( '', ( #160 ) );
#124 = EDGE_LOOP( '', ( #161 ) );
#125 = EDGE_LOOP( '', ( #162 ) );
#126 = EDGE_LOOP( '', ( #163 ) );
#127 = EDGE_LOOP( '', ( #164, #165, #166, #167 ) );
#128 = AXIS2_PLACEMENT_3D( '', #168, #169, #170 );
#129 = EDGE_LOOP( '', ( #171, #172, #173, #174 ) );
#130 = AXIS2_PLACEMENT_3D( '', #175, #176, #177 );
#131 = EDGE_LOOP( '', ( #178, #179, #180, #181 ) );
#132 = AXIS2_PLACEMENT_3D( '', #182, #183, #184 );
#133 = EDGE_LOOP( '', ( #185, #186, #187, #188 ) );
#134 = AXIS2_PLACEMENT_3D( '', #189, #190, #191 );
#135 = EDGE_LOOP( '', ( #192 ) );
#136 = EDGE_LOOP( '', ( #193 ) );
#137 = EDGE_LOOP( '', ( #194 ) );
#138 = EDGE_LOOP( '', ( #195 ) );
#139 = EDGE_LOOP( '', ( #196, #197, #198, #199 ) );
#140 = AXIS2_PLACEMENT_3D( '', #200, #201, #202 );
#141 = EDGE_LOOP( '', ( #203 ) );
#142 = EDGE_LOOP( '', ( #204 ) );
#143 = AXIS2_PLACEMENT_3D( '', #205, #206, #207 );
#144 = EDGE_LOOP( '', ( #208 ) );
#145 = EDGE_LOOP( '', ( #209 ) );
#146 = AXIS2_PLACEMENT_3D( '', #210, #211, #212 );
#147 = EDGE_LOOP( '', ( #213 ) );
#148 = EDGE_LOOP( '', ( #214 ) );
#149 = AXIS2_PLACEMENT_3D( '', #215, #216, #217 );
#150 = EDGE_LOOP( '', ( #218 ) );
#151 = EDGE_LOOP( '', ( #219 ) );
#152 = AXIS2_PLACEMENT_3D( '', #220, #221, #222 );
#153 = ORIENTED_EDGE( '', *, *, #223, .T. );
#154 = ORIENTED_EDGE( '', *, *, #224, .F. );
#155 = ORIENTED_EDGE( '', *, *, #225, .F. );
#156 = ORIENTED_EDGE( '', *, *, #226, .T. );
#157 = CARTESIAN_POINT( '', ( 173.000000000000, 123.000000000000, 46.0000000000000 ) );
#158 = DIRECTION( '', ( 0.000000000000000, -1.00000000000000, 0.000000000000000 ) );
#159 = DIRECTION( '', ( 0.000000000000000, 0.000000000000000, -1.00000000000000 ) );
#160 = ORIENTED_EDGE( '', *, *, #227, .F. );
#161 = ORIENTED_EDGE( '', *, *, #228, .F. );
#162 = ORIENTED_EDGE( '', *, *, #229, .F. );
#163 = ORIENTED_EDGE( '', *, *, #230, .F. );
#164 = ORIENTED_EDGE( '', *, *, #223, .F. );
#165 = ORIENTED_EDGE( '', *, *, #231, .F. );
#166 = ORIENTED_EDGE( '', *, *, #232, .F. );
#167 = ORIENTED_EDGE( '', *, *, #233, .F. );
#168 = CARTESIAN_POINT( '', ( 173.000000000000, 123.000000000000, 0.000000000000000 ) );
#169 = DIRECTION( '', ( 0.000000000000000, 0.000000000000000, -1.00000000000000 ) );
#170 = DIRECTION( '', ( -1.00000000000000, 0.000000000000000, 0.000000000000000 ) );
#171 = ORIENTED_EDGE( '', *, *, #233, .T. );
#172 = ORIENTED_EDGE( '', *, *, #234, .F. );
#173 = ORIENTED_EDGE( '', *, *, #235, .F. );
#174 = ORIENTED_EDGE( '', *, *, #224, .T. );
#175 = CARTESIAN_POINT( '', ( -173.000000000000, 123.000000000000, 46.0000000000000 ) );
#176 = DIRECTION( '', ( 1.00000000000000, 1.12827543152963E-016, 0.000000000000000 ) );
#177 = DIRECTION( '', ( -1.12827543152963E-016, 1.00000000000000, 0.000000000000000 ) );
#178 = ORIENTED_EDGE( '', *, *, #232, .T. );
#179 = ORIENTED_EDGE( '', *, *, #236, .F. );
#180 = ORIENTED_EDGE( '', *, *, #237, .F. );
#181 = ORIENTED_EDGE( '', *, *, #234, .T. );
#182 = CARTESIAN_POINT( '', ( -173.000000000000, -123.000000000000, 46.0000000000000 ) );
#183 = DIRECTION( '', ( 0.000000000000000, 1.00000000000000, 0.000000000000000 ) );
#184 = DIRECTION( '', ( 0.000000000000000, 0.000000000000000, 1.00000000000000 ) );
#185 = ORIENTED_EDGE( '', *, *, #231, .T. );
#186 = ORIENTED_EDGE( '', *, *, #226, .F. );
#187 = ORIENTED_EDGE( '', *, *, #238, .F. );
#188 = ORIENTED_EDGE( '', *, *, #236, .T. );
#189 = CARTESIAN_POINT( '', ( 173.000000000000, -123.000000000000, 46.0000000000000 ) );
#190 = DIRECTION( '', ( -1.00000000000000, 0.000000000000000, 0.000000000000000 ) );
#191 = DIRECTION( '', ( 0.000000000000000, 0.000000000000000, 1.00000000000000 ) );
#192 = ORIENTED_EDGE( '', *, *, #239, .F. );
#193 = ORIENTED_EDGE( '', *, *, #240, .F. );
#194 = ORIENTED_EDGE( '', *, *, #241, .F. );
#195 = ORIENTED_EDGE( '', *, *, #242, .F. );
#196 = ORIENTED_EDGE( '', *, *, #225, .T. );
#197 = ORIENTED_EDGE( '', *, *, #235, .T. );
#198 = ORIENTED_EDGE( '', *, *, #237, .T. );
#199 = ORIENTED_EDGE( '', *, *, #238, .T. );
#200 = CARTESIAN_POINT( '', ( 173.000000000000, 123.000000000000, 46.0000000000000 ) );
#201 = DIRECTION( '', ( 0.000000000000000, 0.000000000000000, -1.00000000000000 ) );
#202 = DIRECTION( '', ( -1.00000000000000, 0.000000000000000, 0.000000000000000 ) );
#203 = ORIENTED_EDGE( '', *, *, #242, .T. );
#204 = ORIENTED_EDGE( '', *, *, #230, .T. );
#205 = CARTESIAN_POINT( '', ( -112.000000000000, -97.0000000000000, -381.022247663983 ) );
#206 = DIRECTION( '', ( 0.000000000000000, 0.000000000000000, -1.00000000000000 ) );
#207 = DIRECTION( '', ( 1.00000000000000, 0.000000000000000, 0.000000000000000 ) );
#208 = ORIENTED_EDGE( '', *, *, #241, .T. );
#209 = ORIENTED_EDGE( '', *, *, #229, .T. );
#210 = CARTESIAN_POINT( '', ( 112.000000000000, -97.0000000000000, -381.022247663983 ) );
#211 = DIRECTION( '', ( 0.000000000000000, 0.000000000000000, -1.00000000000000 ) );
#212 = DIRECTION( '', ( 1.00000000000000, 0.000000000000000, 0.000000000000000 ) );
#213 = ORIENTED_EDGE( '', *, *, #240, .T. );
#214 = ORIENTED_EDGE( '', *, *, #228, .T. );
#215 = CARTESIAN_POINT( '', ( 112.000000000000, 97.0000000000000, -381.022247663983 ) );
#216 = DIRECTION( '', ( 0.000000000000000, 0.000000000000000, -1.00000000000000 ) );
#217 = DIRECTION( '', ( 1.00000000000000, 0.000000000000000, 0.000000000000000 ) );
#218 = ORIENTED_EDGE( '', *, *, #239, .T. );
#219 = ORIENTED_EDGE( '', *, *, #227, .T. );
#220 = CARTESIAN_POINT( '', ( -112.000000000000, 97.0000000000000, -381.022247663983 ) );
#221 = DIRECTION( '', ( 0.000000000000000, 0.000000000000000, -1.00000000000000 ) );
#222 = DIRECTION( '', ( 1.00000000000000, 0.000000000000000, 0.000000000000000 ) );
#223 = EDGE_CURVE( '', #243, #244, #245, .T. );
#224 = EDGE_CURVE( '', #246, #244, #247, .T. );
#225 = EDGE_CURVE( '', #248, #246, #249, .T. );
#226 = EDGE_CURVE( '', #248, #243, #250, .T. );
#227 = EDGE_CURVE( '', #251, #251, #252, .T. );
#228 = EDGE_CURVE( '', #253, #253, #254, .T. );
#229 = EDGE_CURVE( '', #255, #255, #256, .T. );
#230 = EDGE_CURVE( '', #257, #257, #258, .T. );
#231 = EDGE_CURVE( '', #259, #243, #260, .T. );
#232 = EDGE_CURVE( '', #261, #259, #262, .T. );
#233 = EDGE_CURVE( '', #244, #261, #263, .T. );
#234 = EDGE_CURVE( '', #264, #261, #265, .T. );
#235 = EDGE_CURVE( '', #246, #264, #266, .T. );
#236 = EDGE_CURVE( '', #267, #259, #268, .T. );
#237 = EDGE_CURVE( '', #264, #267, #269, .T. );
#238 = EDGE_CURVE( '', #267, #248, #270, .T. );
#239 = EDGE_CURVE( '', #271, #271, #272, .T. );
#240 = EDGE_CURVE( '', #273, #273, #274, .T. );
#241 = EDGE_CURVE( '', #275, #275, #276, .T. );
#242 = EDGE_CURVE( '', #277, #277, #278, .T. );
#243 = VERTEX_POINT( '', #279 );
#244 = VERTEX_POINT( '', #280 );
#245 = LINE( '', #281, #282 );
#246 = VERTEX_POINT( '', #283 );
#247 = LINE( '', #284, #285 );
#248 = VERTEX_POINT( '', #286 );
#249 = LINE( '', #287, #288 );
#250 = LINE( '', #289, #290 );
#251 = VERTEX_POINT( '', #291 );
#252 = CIRCLE( '', #292, 7.00000000000000 );
#253 = VERTEX_POINT( '', #293 );
#254 = CIRCLE( '', #294, 7.00000000000000 );
#255 = VERTEX_POINT( '', #295 );
#256 = CIRCLE( '', #296, 7.00000000000000 );
#257 = VERTEX_POINT( '', #297 );
#258 = CIRCLE( '', #298, 7.00000000000000 );
#259 = VERTEX_POINT( '', #299 );
#260 = LINE( '', #300, #301 );
#261 = VERTEX_POINT( '', #302 );
#262 = LINE( '', #303, #304 );
#263 = LINE( '', #305, #306 );
#264 = VERTEX_POINT( '', #307 );
#265 = LINE( '', #308, #309 );
#266 = LINE( '', #310, #311 );
#267 = VERTEX_POINT( '', #312 );
#268 = LINE( '', #313, #314 );
#269 = LINE( '', #315, #316 );
#270 = LINE( '', #317, #318 );
#271 = VERTEX_POINT( '', #319 );
#272 = CIRCLE( '', #320, 7.00000000000000 );
#273 = VERTEX_POINT( '', #321 );
#274 = CIRCLE( '', #322, 7.00000000000000 );
#275 = VERTEX_POINT( '', #323 );
#276 = CIRCLE( '', #324, 7.00000000000000 );
#277 = VERTEX_POINT( '', #325 );
#278 = CIRCLE( '', #326, 7.00000000000000 );
#279 = CARTESIAN_POINT( '', ( 173.000000000000, 123.000000000000, 0.000000000000000 ) );
#280 = CARTESIAN_POINT( '', ( -173.000000000000, 123.000000000000, 0.000000000000000 ) );
#281 = CARTESIAN_POINT( '', ( 173.000000000000, 123.000000000000, 0.000000000000000 ) );
#282 = VECTOR( '', #327, 1000.00000000000 );
#283 = CARTESIAN_POINT( '', ( -173.000000000000, 123.000000000000, 46.0000000000000 ) );
#284 = CARTESIAN_POINT( '', ( -173.000000000000, 123.000000000000, 46.0000000000000 ) );
#285 = VECTOR( '', #328, 1000.00000000000 );
#286 = CARTESIAN_POINT( '', ( 173.000000000000, 123.000000000000, 46.0000000000000 ) );
#287 = CARTESIAN_POINT( '', ( 173.000000000000, 123.000000000000, 46.0000000000000 ) );
#288 = VECTOR( '', #329, 1000.00000000000 );
#289 = CARTESIAN_POINT( '', ( 173.000000000000, 123.000000000000, 46.0000000000000 ) );
#290 = VECTOR( '', #330, 1000.00000000000 );
#291 = CARTESIAN_POINT( '', ( -119.000000000000, 97.0000000000000, 0.000000000000000 ) );
#292 = AXIS2_PLACEMENT_3D( '', #331, #332, #333 );
#293 = CARTESIAN_POINT( '', ( 105.000000000000, 97.0000000000000, 0.000000000000000 ) );
#294 = AXIS2_PLACEMENT_3D( '', #334, #335, #336 );
#295 = CARTESIAN_POINT( '', ( 105.000000000000, -97.0000000000000, 0.000000000000000 ) );
#296 = AXIS2_PLACEMENT_3D( '', #337, #338, #339 );
#297 = CARTESIAN_POINT( '', ( -119.000000000000, -97.0000000000000, 0.000000000000000 ) );
#298 = AXIS2_PLACEMENT_3D( '', #340, #341, #342 );
#299 = CARTESIAN_POINT( '', ( 173.000000000000, -123.000000000000, 0.000000000000000 ) );
#300 = CARTESIAN_POINT( '', ( 173.000000000000, -123.000000000000, 0.000000000000000 ) );
#301 = VECTOR( '', #343, 1000.00000000000 );
#302 = CARTESIAN_POINT( '', ( -173.000000000000, -123.000000000000, 0.000000000000000 ) );
#303 = CARTESIAN_POINT( '', ( -173.000000000000, -123.000000000000, 0.000000000000000 ) );
#304 = VECTOR( '', #344, 1000.00000000000 );
#305 = CARTESIAN_POINT( '', ( -173.000000000000, 123.000000000000, 0.000000000000000 ) );
#306 = VECTOR( '', #345, 1000.00000000000 );
#307 = CARTESIAN_POINT( '', ( -173.000000000000, -123.000000000000, 46.0000000000000 ) );
#308 = CARTESIAN_POINT( '', ( -173.000000000000, -123.000000000000, 46.0000000000000 ) );
#309 = VECTOR( '', #346, 1000.00000000000 );
#310 = CARTESIAN_POINT( '', ( -173.000000000000, 123.000000000000, 46.0000000000000 ) );
#311 = VECTOR( '', #347, 1000.00000000000 );
#312 = CARTESIAN_POINT( '', ( 173.000000000000, -123.000000000000, 46.0000000000000 ) );
#313 = CARTESIAN_POINT( '', ( 173.000000000000, -123.000000000000, 46.0000000000000 ) );
#314 = VECTOR( '', #348, 1000.00000000000 );
#315 = CARTESIAN_POINT( '', ( -173.000000000000, -123.000000000000, 46.0000000000000 ) );
#316 = VECTOR( '', #349, 1000.00000000000 );
#317 = CARTESIAN_POINT( '', ( 173.000000000000, -123.000000000000, 46.0000000000000 ) );
#318 = VECTOR( '', #350, 1000.00000000000 );
#319 = CARTESIAN_POINT( '', ( -105.000000000000, 97.0000000000000, 46.0000000000000 ) );
#320 = AXIS2_PLACEMENT_3D( '', #351, #352, #353 );
#321 = CARTESIAN_POINT( '', ( 119.000000000000, 97.0000000000000, 46.0000000000000 ) );
#322 = AXIS2_PLACEMENT_3D( '', #354, #355, #356 );
#323 = CARTESIAN_POINT( '', ( 119.000000000000, -97.0000000000000, 46.0000000000000 ) );
#324 = AXIS2_PLACEMENT_3D( '', #357, #358, #359 );
#325 = CARTESIAN_POINT( '', ( -105.000000000000, -97.0000000000000, 46.0000000000000 ) );
#326 = AXIS2_PLACEMENT_3D( '', #360, #361, #362 );
#327 = DIRECTION( '', ( -1.00000000000000, 0.000000000000000, 0.000000000000000 ) );
#328 = DIRECTION( '', ( 0.000000000000000, 0.000000000000000, -1.00000000000000 ) );
#329 = DIRECTION( '', ( -1.00000000000000, 0.000000000000000, 0.000000000000000 ) );
#330 = DIRECTION( '', ( 0.000000000000000, 0.000000000000000, -1.00000000000000 ) );
#331 = CARTESIAN_POINT( '', ( -112.000000000000, 97.0000000000000, 0.000000000000000 ) );
#332 = DIRECTION( '', ( 0.000000000000000, 0.000000000000000, -1.00000000000000 ) );
#333 = DIRECTION( '', ( -1.00000000000000, 0.000000000000000, 0.000000000000000 ) );
#334 = CARTESIAN_POINT( '', ( 112.000000000000, 97.0000000000000, 0.000000000000000 ) );
#335 = DIRECTION( '', ( 0.000000000000000, 0.000000000000000, -1.00000000000000 ) );
#336 = DIRECTION( '', ( -1.00000000000000, 0.000000000000000, 0.000000000000000 ) );
#337 = CARTESIAN_POINT( '', ( 112.000000000000, -97.0000000000000, 0.000000000000000 ) );
#338 = DIRECTION( '', ( 0.000000000000000, 0.000000000000000, -1.00000000000000 ) );
#339 = DIRECTION( '', ( -1.00000000000000, 0.000000000000000, 0.000000000000000 ) );
#340 = CARTESIAN_POINT( '', ( -112.000000000000, -97.0000000000000, 0.000000000000000 ) );
#341 = DIRECTION( '', ( 0.000000000000000, 0.000000000000000, -1.00000000000000 ) );
#342 = DIRECTION( '', ( -1.00000000000000, 0.000000000000000, 0.000000000000000 ) );
#343 = DIRECTION( '', ( 0.000000000000000, 1.00000000000000, 0.000000000000000 ) );
#344 = DIRECTION( '', ( 1.00000000000000, 0.000000000000000, 0.000000000000000 ) );
#345 = DIRECTION( '', ( 1.12827543152963E-016, -1.00000000000000, 0.000000000000000 ) );
#346 = DIRECTION( '', ( 0.000000000000000, 0.000000000000000, -1.00000000000000 ) );
#347 = DIRECTION( '', ( 1.12827543152963E-016, -1.00000000000000, 0.000000000000000 ) );
#348 = DIRECTION( '', ( 0.000000000000000, 0.000000000000000, -1.00000000000000 ) );
#349 = DIRECTION( '', ( 1.00000000000000, 0.000000000000000, 0.000000000000000 ) );
#350 = DIRECTION( '', ( 0.000000000000000, 1.00000000000000, 0.000000000000000 ) );
#351 = CARTESIAN_POINT( '', ( -112.000000000000, 97.0000000000000, 46.0000000000000 ) );
#352 = DIRECTION( '', ( 0.000000000000000, 0.000000000000000, 1.00000000000000 ) );
#353 = DIRECTION( '', ( 1.00000000000000, 0.000000000000000, 0.000000000000000 ) );
#354 = CARTESIAN_POINT( '', ( 112.000000000000, 97.0000000000000, 46.0000000000000 ) );
#355 = DIRECTION( '', ( 0.000000000000000, 0.000000000000000, 1.00000000000000 ) );
#356 = DIRECTION( '', ( 1.00000000000000, 0.000000000000000, 0.000000000000000 ) );
#357 = CARTESIAN_POINT( '', ( 112.000000000000, -97.0000000000000, 46.0000000000000 ) );
#358 = DIRECTION( '', ( 0.000000000000000, 0.000000000000000, 1.00000000000000 ) );
#359 = DIRECTION( '', ( 1.00000000000000, 0.000000000000000, 0.000000000000000 ) );
#360 = CARTESIAN_POINT( '', ( -112.000000000000, -97.0000000000000, 46.0000000000000 ) );
#361 = DIRECTION( '', ( 0.000000000000000, 0.000000000000000, 1.00000000000000 ) );
#362 = DIRECTION( '', ( 1.00000000000000, 0.000000000000000, 0.000000000000000 ) );
ENDSEC;
END-ISO-10303-21;
