ISO-10303-21;
HEADER;
FILE_DESCRIPTION( ( 'Unknown' ), '1' );
FILE_NAME( 'C:/Documents and Settings/BEATRIZ/Escritorio/ORYMO/PLACAS PARA MOLDES OS/PLACAS OS-J2/OS_J2_596x996x076_/OS_J2_596x996x076_.stp', 'Unknown', ( 'Unknown' ), ( 'Unknown' ), 'XStep 1.0', 'Unknown', ' ' );
FILE_SCHEMA( ( 'CONFIG_CONTROL_DESIGN' ) );
ENDSEC;
DATA;
#1 = DESIGN_CONTEXT( '', #27, 'design' );
#2 = APPLICATION_PROTOCOL_DEFINITION( 'INTERNATIONAL STANDARD', 'config_control_design', 1994, #27 );
#3 = PRODUCT_CATEGORY_RELATIONSHIP( 'NONE', 'NONE', #28, #29 );
#4 = DATE_AND_TIME( #30, #31 );
#5 = DATE_TIME_ROLE( 'creation_date' );
#6 = DATE_TIME_ROLE( 'classification_date' );
#7 = PERSON_AND_ORGANIZATION_ROLE( 'creator' );
#8 = PERSON_AND_ORGANIZATION_ROLE( 'design_supplier' );
#9 = PERSON_AND_ORGANIZATION_ROLE( 'classification_officer' );
#10 = PERSON_AND_ORGANIZATION_ROLE( 'design_owner' );
#11 = APPROVAL_PERSON_ORGANIZATION( #32, #33, #34 );
#12 = APPROVAL_DATE_TIME( #4, #33 );
#13 = CC_DESIGN_APPROVAL( #33, ( #35, #36, #37 ) );
#14 = CC_DESIGN_DATE_AND_TIME_ASSIGNMENT( #4, #5, ( #37 ) );
#15 = CC_DESIGN_DATE_AND_TIME_ASSIGNMENT( #4, #6, ( #35 ) );
#16 = CC_DESIGN_PERSON_AND_ORGANIZATION_ASSIGNMENT( #32, #10, ( #38 ) );
#17 = CC_DESIGN_PERSON_AND_ORGANIZATION_ASSIGNMENT( #32, #7, ( #37 ) );
#18 = CC_DESIGN_PERSON_AND_ORGANIZATION_ASSIGNMENT( #32, #7, ( #36 ) );
#19 = CC_DESIGN_PERSON_AND_ORGANIZATION_ASSIGNMENT( #32, #8, ( #36 ) );
#20 = CC_DESIGN_SECURITY_CLASSIFICATION( #35, ( #36 ) );
#21 = CC_DESIGN_PERSON_AND_ORGANIZATION_ASSIGNMENT( #32, #9, ( #35 ) );
#22 = SHAPE_DEFINITION_REPRESENTATION( #39, #40 );
#23 =  ( GEOMETRIC_REPRESENTATION_CONTEXT( 3 )GLOBAL_UNCERTAINTY_ASSIGNED_CONTEXT( ( #43 ) )GLOBAL_UNIT_ASSIGNED_CONTEXT( ( #45, #46, #47 ) )REPRESENTATION_CONTEXT( 'NONE', 'WORKSPACE' ) );
#27 = APPLICATION_CONTEXT( 'CONFIGURATION CONTROLLED 3D DESIGNS OF MECHANICAL PARTS AND ASSEMBLIES' );
#28 = PRODUCT_CATEGORY( 'part', 'NONE' );
#29 = PRODUCT_RELATED_PRODUCT_CATEGORY( 'detail', ' ', ( #38 ) );
#30 = CALENDAR_DATE( 2004, 15, 5 );
#31 = LOCAL_TIME( 22, 10, 37.0000000000000, #49 );
#32 = PERSON_AND_ORGANIZATION( #50, #51 );
#33 = APPROVAL( #52, 'SOLID MODEL' );
#34 = APPROVAL_ROLE( 'APPROVED' );
#35 = SECURITY_CLASSIFICATION( '', '', #53 );
#36 = PRODUCT_DEFINITION_FORMATION_WITH_SPECIFIED_SOURCE( ' ', 'NONE', #38, .NOT_KNOWN. );
#37 = PRODUCT_DEFINITION( 'NONE', 'NONE', #36, #1 );
#38 = PRODUCT( '1', '1', 'PART-1-DESC', ( #54 ) );
#39 = PRODUCT_DEFINITION_SHAPE( 'NONE', 'NONE', #37 );
#40 = ADVANCED_BREP_SHAPE_REPRESENTATION( '1', ( #55, #56 ), #23 );
#43 = UNCERTAINTY_MEASURE_WITH_UNIT( LENGTH_MEASURE( 0.00100000000000000 ), #45, '', '' );
#45 =  ( CONVERSION_BASED_UNIT( 'MILLIMETRE', #59 )LENGTH_UNIT(  )NAMED_UNIT( #62 ) );
#46 =  ( CONVERSION_BASED_UNIT( 'RADIAN', #64 )NAMED_UNIT( #66 )PLANE_ANGLE_UNIT(  ) );
#47 =  ( NAMED_UNIT( #66 )SOLID_ANGLE_UNIT(  )SI_UNIT( $, .STERADIAN. ) );
#49 = COORDINATED_UNIVERSAL_TIME_OFFSET( 1, 0, .AHEAD. );
#50 = PERSON( '', 'UNSPECIFIED', $, $, $, $ );
#51 = ORGANIZATION( 'UNSPECIFIED', 'UNSPECIFIED', 'UNSPECIFIED' );
#52 = APPROVAL_STATUS( 'approved' );
#53 = SECURITY_CLASSIFICATION_LEVEL( 'unclassified' );
#54 = MECHANICAL_CONTEXT( '', #27, 'mechanical' );
#55 = MANIFOLD_SOLID_BREP( '1', #71 );
#56 = AXIS2_PLACEMENT_3D( '', #72, #73, #74 );
#59 = LENGTH_MEASURE_WITH_UNIT( LENGTH_MEASURE( 1.00000000000000 ), #75 );
#62 = DIMENSIONAL_EXPONENTS( 1.00000000000000, 0.000000000000000, 0.000000000000000, 0.000000000000000, 0.000000000000000, 0.000000000000000, 0.000000000000000 );
#64 = PLANE_ANGLE_MEASURE_WITH_UNIT( PLANE_ANGLE_MEASURE( 1.00000000000000 ), #76 );
#66 = DIMENSIONAL_EXPONENTS( 0.000000000000000, 0.000000000000000, 0.000000000000000, 0.000000000000000, 0.000000000000000, 0.000000000000000, 0.000000000000000 );
#71 = CLOSED_SHELL( '', ( #77, #78, #79, #80, #81, #82, #83, #84, #85, #86, #87, #88, #89, #90 ) );
#72 = CARTESIAN_POINT( '', ( 0.000000000000000, 0.000000000000000, 0.000000000000000 ) );
#73 = DIRECTION( '', ( 0.000000000000000, 0.000000000000000, 1.00000000000000 ) );
#74 = DIRECTION( '', ( 1.00000000000000, 0.000000000000000, 0.000000000000000 ) );
#75 =  ( NAMED_UNIT( #62 )LENGTH_UNIT(  )SI_UNIT( .MILLI., .METRE. ) );
#76 =  ( NAMED_UNIT( #66 )PLANE_ANGLE_UNIT(  )SI_UNIT( $, .RADIAN. ) );
#77 = ADVANCED_FACE( '', ( #93 ), #94, .F. );
#78 = ADVANCED_FACE( '', ( #95, #96, #97, #98, #99, #100, #101, #102, #103 ), #104, .T. );
#79 = ADVANCED_FACE( '', ( #105 ), #106, .F. );
#80 = ADVANCED_FACE( '', ( #107 ), #108, .F. );
#81 = ADVANCED_FACE( '', ( #109 ), #110, .F. );
#82 = ADVANCED_FACE( '', ( #111, #112, #113, #114, #115, #116, #117, #118, #119 ), #120, .F. );
#83 = ADVANCED_FACE( '', ( #121, #122 ), #123, .F. );
#84 = ADVANCED_FACE( '', ( #124, #125 ), #126, .F. );
#85 = ADVANCED_FACE( '', ( #127, #128 ), #129, .F. );
#86 = ADVANCED_FACE( '', ( #130, #131 ), #132, .F. );
#87 = ADVANCED_FACE( '', ( #133, #134 ), #135, .F. );
#88 = ADVANCED_FACE( '', ( #136, #137 ), #138, .F. );
#89 = ADVANCED_FACE( '', ( #139, #140 ), #141, .F. );
#90 = ADVANCED_FACE( '', ( #142, #143 ), #144, .F. );
#93 = FACE_OUTER_BOUND( '', #145, .T. );
#94 = PLANE( '', #146 );
#95 = FACE_BOUND( '', #147, .T. );
#96 = FACE_BOUND( '', #148, .T. );
#97 = FACE_BOUND( '', #149, .T. );
#98 = FACE_BOUND( '', #150, .T. );
#99 = FACE_BOUND( '', #151, .T. );
#100 = FACE_BOUND( '', #152, .T. );
#101 = FACE_BOUND( '', #153, .T. );
#102 = FACE_BOUND( '', #154, .T. );
#103 = FACE_OUTER_BOUND( '', #155, .T. );
#104 = PLANE( '', #156 );
#105 = FACE_OUTER_BOUND( '', #157, .T. );
#106 = PLANE( '', #158 );
#107 = FACE_OUTER_BOUND( '', #159, .T. );
#108 = PLANE( '', #160 );
#109 = FACE_OUTER_BOUND( '', #161, .T. );
#110 = PLANE( '', #162 );
#111 = FACE_BOUND( '', #163, .T. );
#112 = FACE_BOUND( '', #164, .T. );
#113 = FACE_BOUND( '', #165, .T. );
#114 = FACE_BOUND( '', #166, .T. );
#115 = FACE_BOUND( '', #167, .T. );
#116 = FACE_BOUND( '', #168, .T. );
#117 = FACE_BOUND( '', #169, .T. );
#118 = FACE_BOUND( '', #170, .T. );
#119 = FACE_OUTER_BOUND( '', #171, .T. );
#120 = PLANE( '', #172 );
#121 = FACE_OUTER_BOUND( '', #173, .T. );
#122 = FACE_OUTER_BOUND( '', #174, .T. );
#123 = CYLINDRICAL_SURFACE( '', #175, 11.0000000000000 );
#124 = FACE_OUTER_BOUND( '', #176, .T. );
#125 = FACE_OUTER_BOUND( '', #177, .T. );
#126 = CYLINDRICAL_SURFACE( '', #178, 11.0000000000000 );
#127 = FACE_OUTER_BOUND( '', #179, .T. );
#128 = FACE_OUTER_BOUND( '', #180, .T. );
#129 = CYLINDRICAL_SURFACE( '', #181, 11.0000000000000 );
#130 = FACE_OUTER_BOUND( '', #182, .T. );
#131 = FACE_OUTER_BOUND( '', #183, .T. );
#132 = CYLINDRICAL_SURFACE( '', #184, 11.0000000000000 );
#133 = FACE_OUTER_BOUND( '', #185, .T. );
#134 = FACE_OUTER_BOUND( '', #186, .T. );
#135 = CYLINDRICAL_SURFACE( '', #187, 27.0000000000000 );
#136 = FACE_OUTER_BOUND( '', #188, .T. );
#137 = FACE_OUTER_BOUND( '', #189, .T. );
#138 = CYLINDRICAL_SURFACE( '', #190, 27.0000000000000 );
#139 = FACE_OUTER_BOUND( '', #191, .T. );
#140 = FACE_OUTER_BOUND( '', #192, .T. );
#141 = CYLINDRICAL_SURFACE( '', #193, 27.0000000000000 );
#142 = FACE_OUTER_BOUND( '', #194, .T. );
#143 = FACE_OUTER_BOUND( '', #195, .T. );
#144 = CYLINDRICAL_SURFACE( '', #196, 27.0000000000000 );
#145 = EDGE_LOOP( '', ( #197, #198, #199, #200 ) );
#146 = AXIS2_PLACEMENT_3D( '', #201, #202, #203 );
#147 = EDGE_LOOP( '', ( #204 ) );
#148 = EDGE_LOOP( '', ( #205 ) );
#149 = EDGE_LOOP( '', ( #206 ) );
#150 = EDGE_LOOP( '', ( #207 ) );
#151 = EDGE_LOOP( '', ( #208 ) );
#152 = EDGE_LOOP( '', ( #209 ) );
#153 = EDGE_LOOP( '', ( #210 ) );
#154 = EDGE_LOOP( '', ( #211 ) );
#155 = EDGE_LOOP( '', ( #212, #213, #214, #215 ) );
#156 = AXIS2_PLACEMENT_3D( '', #216, #217, #218 );
#157 = EDGE_LOOP( '', ( #219, #220, #221, #222 ) );
#158 = AXIS2_PLACEMENT_3D( '', #223, #224, #225 );
#159 = EDGE_LOOP( '', ( #226, #227, #228, #229 ) );
#160 = AXIS2_PLACEMENT_3D( '', #230, #231, #232 );
#161 = EDGE_LOOP( '', ( #233, #234, #235, #236 ) );
#162 = AXIS2_PLACEMENT_3D( '', #237, #238, #239 );
#163 = EDGE_LOOP( '', ( #240 ) );
#164 = EDGE_LOOP( '', ( #241 ) );
#165 = EDGE_LOOP( '', ( #242 ) );
#166 = EDGE_LOOP( '', ( #243 ) );
#167 = EDGE_LOOP( '', ( #244 ) );
#168 = EDGE_LOOP( '', ( #245 ) );
#169 = EDGE_LOOP( '', ( #246 ) );
#170 = EDGE_LOOP( '', ( #247 ) );
#171 = EDGE_LOOP( '', ( #248, #249, #250, #251 ) );
#172 = AXIS2_PLACEMENT_3D( '', #252, #253, #254 );
#173 = EDGE_LOOP( '', ( #255 ) );
#174 = EDGE_LOOP( '', ( #256 ) );
#175 = AXIS2_PLACEMENT_3D( '', #257, #258, #259 );
#176 = EDGE_LOOP( '', ( #260 ) );
#177 = EDGE_LOOP( '', ( #261 ) );
#178 = AXIS2_PLACEMENT_3D( '', #262, #263, #264 );
#179 = EDGE_LOOP( '', ( #265 ) );
#180 = EDGE_LOOP( '', ( #266 ) );
#181 = AXIS2_PLACEMENT_3D( '', #267, #268, #269 );
#182 = EDGE_LOOP( '', ( #270 ) );
#183 = EDGE_LOOP( '', ( #271 ) );
#184 = AXIS2_PLACEMENT_3D( '', #272, #273, #274 );
#185 = EDGE_LOOP( '', ( #275 ) );
#186 = EDGE_LOOP( '', ( #276 ) );
#187 = AXIS2_PLACEMENT_3D( '', #277, #278, #279 );
#188 = EDGE_LOOP( '', ( #280 ) );
#189 = EDGE_LOOP( '', ( #281 ) );
#190 = AXIS2_PLACEMENT_3D( '', #282, #283, #284 );
#191 = EDGE_LOOP( '', ( #285 ) );
#192 = EDGE_LOOP( '', ( #286 ) );
#193 = AXIS2_PLACEMENT_3D( '', #287, #288, #289 );
#194 = EDGE_LOOP( '', ( #290 ) );
#195 = EDGE_LOOP( '', ( #291 ) );
#196 = AXIS2_PLACEMENT_3D( '', #292, #293, #294 );
#197 = ORIENTED_EDGE( '', *, *, #295, .T. );
#198 = ORIENTED_EDGE( '', *, *, #296, .F. );
#199 = ORIENTED_EDGE( '', *, *, #297, .F. );
#200 = ORIENTED_EDGE( '', *, *, #298, .T. );
#201 = CARTESIAN_POINT( '', ( 498.000000000000, 298.000000000000, 76.0000000000000 ) );
#202 = DIRECTION( '', ( 0.000000000000000, -1.00000000000000, 0.000000000000000 ) );
#203 = DIRECTION( '', ( 0.000000000000000, 0.000000000000000, -1.00000000000000 ) );
#204 = ORIENTED_EDGE( '', *, *, #299, .F. );
#205 = ORIENTED_EDGE( '', *, *, #300, .F. );
#206 = ORIENTED_EDGE( '', *, *, #301, .F. );
#207 = ORIENTED_EDGE( '', *, *, #302, .F. );
#208 = ORIENTED_EDGE( '', *, *, #303, .F. );
#209 = ORIENTED_EDGE( '', *, *, #304, .F. );
#210 = ORIENTED_EDGE( '', *, *, #305, .F. );
#211 = ORIENTED_EDGE( '', *, *, #306, .F. );
#212 = ORIENTED_EDGE( '', *, *, #295, .F. );
#213 = ORIENTED_EDGE( '', *, *, #307, .F. );
#214 = ORIENTED_EDGE( '', *, *, #308, .F. );
#215 = ORIENTED_EDGE( '', *, *, #309, .F. );
#216 = CARTESIAN_POINT( '', ( 498.000000000000, 298.000000000000, 0.000000000000000 ) );
#217 = DIRECTION( '', ( 0.000000000000000, 0.000000000000000, -1.00000000000000 ) );
#218 = DIRECTION( '', ( -1.00000000000000, 0.000000000000000, 0.000000000000000 ) );
#219 = ORIENTED_EDGE( '', *, *, #309, .T. );
#220 = ORIENTED_EDGE( '', *, *, #310, .F. );
#221 = ORIENTED_EDGE( '', *, *, #311, .F. );
#222 = ORIENTED_EDGE( '', *, *, #296, .T. );
#223 = CARTESIAN_POINT( '', ( -498.000000000000, 298.000000000000, 76.0000000000000 ) );
#224 = DIRECTION( '', ( 1.00000000000000, 9.31395154886876E-017, 0.000000000000000 ) );
#225 = DIRECTION( '', ( -9.31395154886876E-017, 1.00000000000000, 0.000000000000000 ) );
#226 = ORIENTED_EDGE( '', *, *, #307, .T. );
#227 = ORIENTED_EDGE( '', *, *, #298, .F. );
#228 = ORIENTED_EDGE( '', *, *, #312, .F. );
#229 = ORIENTED_EDGE( '', *, *, #313, .T. );
#230 = CARTESIAN_POINT( '', ( 498.000000000000, -298.000000000000, 76.0000000000000 ) );
#231 = DIRECTION( '', ( -1.00000000000000, 0.000000000000000, 0.000000000000000 ) );
#232 = DIRECTION( '', ( 0.000000000000000, 0.000000000000000, 1.00000000000000 ) );
#233 = ORIENTED_EDGE( '', *, *, #308, .T. );
#234 = ORIENTED_EDGE( '', *, *, #313, .F. );
#235 = ORIENTED_EDGE( '', *, *, #314, .F. );
#236 = ORIENTED_EDGE( '', *, *, #310, .T. );
#237 = CARTESIAN_POINT( '', ( -498.000000000000, -298.000000000000, 76.0000000000000 ) );
#238 = DIRECTION( '', ( 0.000000000000000, 1.00000000000000, 0.000000000000000 ) );
#239 = DIRECTION( '', ( 0.000000000000000, 0.000000000000000, 1.00000000000000 ) );
#240 = ORIENTED_EDGE( '', *, *, #315, .T. );
#241 = ORIENTED_EDGE( '', *, *, #316, .T. );
#242 = ORIENTED_EDGE( '', *, *, #317, .T. );
#243 = ORIENTED_EDGE( '', *, *, #318, .T. );
#244 = ORIENTED_EDGE( '', *, *, #319, .F. );
#245 = ORIENTED_EDGE( '', *, *, #320, .F. );
#246 = ORIENTED_EDGE( '', *, *, #321, .F. );
#247 = ORIENTED_EDGE( '', *, *, #322, .F. );
#248 = ORIENTED_EDGE( '', *, *, #297, .T. );
#249 = ORIENTED_EDGE( '', *, *, #311, .T. );
#250 = ORIENTED_EDGE( '', *, *, #314, .T. );
#251 = ORIENTED_EDGE( '', *, *, #312, .T. );
#252 = CARTESIAN_POINT( '', ( 498.000000000000, 298.000000000000, 76.0000000000000 ) );
#253 = DIRECTION( '', ( 0.000000000000000, 0.000000000000000, -1.00000000000000 ) );
#254 = DIRECTION( '', ( -1.00000000000000, 0.000000000000000, 0.000000000000000 ) );
#255 = ORIENTED_EDGE( '', *, *, #322, .T. );
#256 = ORIENTED_EDGE( '', *, *, #306, .T. );
#257 = CARTESIAN_POINT( '', ( -387.000000000000, -246.000000000000, -1087.18872071560 ) );
#258 = DIRECTION( '', ( 0.000000000000000, 0.000000000000000, -1.00000000000000 ) );
#259 = DIRECTION( '', ( 1.00000000000000, 0.000000000000000, 0.000000000000000 ) );
#260 = ORIENTED_EDGE( '', *, *, #321, .T. );
#261 = ORIENTED_EDGE( '', *, *, #305, .T. );
#262 = CARTESIAN_POINT( '', ( 387.000000000000, -246.000000000000, -1087.18872071560 ) );
#263 = DIRECTION( '', ( 0.000000000000000, 0.000000000000000, -1.00000000000000 ) );
#264 = DIRECTION( '', ( 1.00000000000000, 0.000000000000000, 0.000000000000000 ) );
#265 = ORIENTED_EDGE( '', *, *, #320, .T. );
#266 = ORIENTED_EDGE( '', *, *, #304, .T. );
#267 = CARTESIAN_POINT( '', ( 387.000000000000, 246.000000000000, -1087.18872071560 ) );
#268 = DIRECTION( '', ( 0.000000000000000, 0.000000000000000, -1.00000000000000 ) );
#269 = DIRECTION( '', ( 1.00000000000000, 0.000000000000000, 0.000000000000000 ) );
#270 = ORIENTED_EDGE( '', *, *, #319, .T. );
#271 = ORIENTED_EDGE( '', *, *, #303, .T. );
#272 = CARTESIAN_POINT( '', ( -387.000000000000, 246.000000000000, -1087.18872071560 ) );
#273 = DIRECTION( '', ( 0.000000000000000, 0.000000000000000, -1.00000000000000 ) );
#274 = DIRECTION( '', ( 1.00000000000000, 0.000000000000000, 0.000000000000000 ) );
#275 = ORIENTED_EDGE( '', *, *, #302, .T. );
#276 = ORIENTED_EDGE( '', *, *, #318, .F. );
#277 = CARTESIAN_POINT( '', ( -446.000000000011, 246.000000000000, 76.0000000000000 ) );
#278 = DIRECTION( '', ( 0.000000000000000, 0.000000000000000, 1.00000000000000 ) );
#279 = DIRECTION( '', ( 0.000000000000000, -1.00000000000000, 0.000000000000000 ) );
#280 = ORIENTED_EDGE( '', *, *, #301, .T. );
#281 = ORIENTED_EDGE( '', *, *, #317, .F. );
#282 = CARTESIAN_POINT( '', ( 445.999999999989, 246.000000000000, 76.0000000000000 ) );
#283 = DIRECTION( '', ( 0.000000000000000, 0.000000000000000, 1.00000000000000 ) );
#284 = DIRECTION( '', ( 0.000000000000000, -1.00000000000000, 0.000000000000000 ) );
#285 = ORIENTED_EDGE( '', *, *, #300, .T. );
#286 = ORIENTED_EDGE( '', *, *, #316, .F. );
#287 = CARTESIAN_POINT( '', ( 445.999999999989, -246.000000000000, 76.0000000000000 ) );
#288 = DIRECTION( '', ( 0.000000000000000, 0.000000000000000, 1.00000000000000 ) );
#289 = DIRECTION( '', ( 0.000000000000000, -1.00000000000000, 0.000000000000000 ) );
#290 = ORIENTED_EDGE( '', *, *, #299, .T. );
#291 = ORIENTED_EDGE( '', *, *, #315, .F. );
#292 = CARTESIAN_POINT( '', ( -446.000000000011, -246.000000000000, 76.0000000000000 ) );
#293 = DIRECTION( '', ( 0.000000000000000, 0.000000000000000, 1.00000000000000 ) );
#294 = DIRECTION( '', ( 0.000000000000000, -1.00000000000000, 0.000000000000000 ) );
#295 = EDGE_CURVE( '', #323, #324, #325, .T. );
#296 = EDGE_CURVE( '', #326, #324, #327, .T. );
#297 = EDGE_CURVE( '', #328, #326, #329, .T. );
#298 = EDGE_CURVE( '', #328, #323, #330, .T. );
#299 = EDGE_CURVE( '', #331, #331, #332, .T. );
#300 = EDGE_CURVE( '', #333, #333, #334, .T. );
#301 = EDGE_CURVE( '', #335, #335, #336, .T. );
#302 = EDGE_CURVE( '', #337, #337, #338, .T. );
#303 = EDGE_CURVE( '', #339, #339, #340, .T. );
#304 = EDGE_CURVE( '', #341, #341, #342, .T. );
#305 = EDGE_CURVE( '', #343, #343, #344, .T. );
#306 = EDGE_CURVE( '', #345, #345, #346, .T. );
#307 = EDGE_CURVE( '', #347, #323, #348, .T. );
#308 = EDGE_CURVE( '', #349, #347, #350, .T. );
#309 = EDGE_CURVE( '', #324, #349, #351, .T. );
#310 = EDGE_CURVE( '', #352, #349, #353, .T. );
#311 = EDGE_CURVE( '', #326, #352, #354, .T. );
#312 = EDGE_CURVE( '', #355, #328, #356, .T. );
#313 = EDGE_CURVE( '', #355, #347, #357, .T. );
#314 = EDGE_CURVE( '', #352, #355, #358, .T. );
#315 = EDGE_CURVE( '', #359, #359, #360, .T. );
#316 = EDGE_CURVE( '', #361, #361, #362, .T. );
#317 = EDGE_CURVE( '', #363, #363, #364, .T. );
#318 = EDGE_CURVE( '', #365, #365, #366, .T. );
#319 = EDGE_CURVE( '', #367, #367, #368, .T. );
#320 = EDGE_CURVE( '', #369, #369, #370, .T. );
#321 = EDGE_CURVE( '', #371, #371, #372, .T. );
#322 = EDGE_CURVE( '', #373, #373, #374, .T. );
#323 = VERTEX_POINT( '', #375 );
#324 = VERTEX_POINT( '', #376 );
#325 = LINE( '', #377, #378 );
#326 = VERTEX_POINT( '', #379 );
#327 = LINE( '', #380, #381 );
#328 = VERTEX_POINT( '', #382 );
#329 = LINE( '', #383, #384 );
#330 = LINE( '', #385, #386 );
#331 = VERTEX_POINT( '', #387 );
#332 = CIRCLE( '', #388, 27.0000000000000 );
#333 = VERTEX_POINT( '', #389 );
#334 = CIRCLE( '', #390, 27.0000000000000 );
#335 = VERTEX_POINT( '', #391 );
#336 = CIRCLE( '', #392, 27.0000000000000 );
#337 = VERTEX_POINT( '', #393 );
#338 = CIRCLE( '', #394, 27.0000000000000 );
#339 = VERTEX_POINT( '', #395 );
#340 = CIRCLE( '', #396, 11.0000000000000 );
#341 = VERTEX_POINT( '', #397 );
#342 = CIRCLE( '', #398, 11.0000000000000 );
#343 = VERTEX_POINT( '', #399 );
#344 = CIRCLE( '', #400, 11.0000000000000 );
#345 = VERTEX_POINT( '', #401 );
#346 = CIRCLE( '', #402, 11.0000000000000 );
#347 = VERTEX_POINT( '', #403 );
#348 = LINE( '', #404, #405 );
#349 = VERTEX_POINT( '', #406 );
#350 = LINE( '', #407, #408 );
#351 = LINE( '', #409, #410 );
#352 = VERTEX_POINT( '', #411 );
#353 = LINE( '', #412, #413 );
#354 = LINE( '', #414, #415 );
#355 = VERTEX_POINT( '', #416 );
#356 = LINE( '', #417, #418 );
#357 = LINE( '', #419, #420 );
#358 = LINE( '', #421, #422 );
#359 = VERTEX_POINT( '', #423 );
#360 = CIRCLE( '', #424, 27.0000000000000 );
#361 = VERTEX_POINT( '', #425 );
#362 = CIRCLE( '', #426, 27.0000000000000 );
#363 = VERTEX_POINT( '', #427 );
#364 = CIRCLE( '', #428, 27.0000000000000 );
#365 = VERTEX_POINT( '', #429 );
#366 = CIRCLE( '', #430, 27.0000000000000 );
#367 = VERTEX_POINT( '', #431 );
#368 = CIRCLE( '', #432, 11.0000000000000 );
#369 = VERTEX_POINT( '', #433 );
#370 = CIRCLE( '', #434, 11.0000000000000 );
#371 = VERTEX_POINT( '', #435 );
#372 = CIRCLE( '', #436, 11.0000000000000 );
#373 = VERTEX_POINT( '', #437 );
#374 = CIRCLE( '', #438, 11.0000000000000 );
#375 = CARTESIAN_POINT( '', ( 498.000000000000, 298.000000000000, 0.000000000000000 ) );
#376 = CARTESIAN_POINT( '', ( -498.000000000000, 298.000000000000, 0.000000000000000 ) );
#377 = CARTESIAN_POINT( '', ( 498.000000000000, 298.000000000000, 0.000000000000000 ) );
#378 = VECTOR( '', #439, 1000.00000000000 );
#379 = CARTESIAN_POINT( '', ( -498.000000000000, 298.000000000000, 76.0000000000000 ) );
#380 = CARTESIAN_POINT( '', ( -498.000000000000, 298.000000000000, 76.0000000000000 ) );
#381 = VECTOR( '', #440, 1000.00000000000 );
#382 = CARTESIAN_POINT( '', ( 498.000000000000, 298.000000000000, 76.0000000000000 ) );
#383 = CARTESIAN_POINT( '', ( 498.000000000000, 298.000000000000, 76.0000000000000 ) );
#384 = VECTOR( '', #441, 1000.00000000000 );
#385 = CARTESIAN_POINT( '', ( 498.000000000000, 298.000000000000, 76.0000000000000 ) );
#386 = VECTOR( '', #442, 1000.00000000000 );
#387 = CARTESIAN_POINT( '', ( -473.000000000011, -246.000000000000, 0.000000000000000 ) );
#388 = AXIS2_PLACEMENT_3D( '', #443, #444, #445 );
#389 = CARTESIAN_POINT( '', ( 418.999999999989, -246.000000000000, 0.000000000000000 ) );
#390 = AXIS2_PLACEMENT_3D( '', #446, #447, #448 );
#391 = CARTESIAN_POINT( '', ( 418.999999999989, 246.000000000000, 0.000000000000000 ) );
#392 = AXIS2_PLACEMENT_3D( '', #449, #450, #451 );
#393 = CARTESIAN_POINT( '', ( -473.000000000011, 246.000000000000, 0.000000000000000 ) );
#394 = AXIS2_PLACEMENT_3D( '', #452, #453, #454 );
#395 = CARTESIAN_POINT( '', ( -398.000000000000, 246.000000000000, 0.000000000000000 ) );
#396 = AXIS2_PLACEMENT_3D( '', #455, #456, #457 );
#397 = CARTESIAN_POINT( '', ( 376.000000000000, 246.000000000000, 0.000000000000000 ) );
#398 = AXIS2_PLACEMENT_3D( '', #458, #459, #460 );
#399 = CARTESIAN_POINT( '', ( 376.000000000000, -246.000000000000, 0.000000000000000 ) );
#400 = AXIS2_PLACEMENT_3D( '', #461, #462, #463 );
#401 = CARTESIAN_POINT( '', ( -398.000000000000, -246.000000000000, 0.000000000000000 ) );
#402 = AXIS2_PLACEMENT_3D( '', #464, #465, #466 );
#403 = CARTESIAN_POINT( '', ( 498.000000000000, -298.000000000000, 0.000000000000000 ) );
#404 = CARTESIAN_POINT( '', ( 498.000000000000, -298.000000000000, 0.000000000000000 ) );
#405 = VECTOR( '', #467, 1000.00000000000 );
#406 = CARTESIAN_POINT( '', ( -498.000000000000, -298.000000000000, 0.000000000000000 ) );
#407 = CARTESIAN_POINT( '', ( -498.000000000000, -298.000000000000, 0.000000000000000 ) );
#408 = VECTOR( '', #468, 1000.00000000000 );
#409 = CARTESIAN_POINT( '', ( -498.000000000000, 298.000000000000, 0.000000000000000 ) );
#410 = VECTOR( '', #469, 1000.00000000000 );
#411 = CARTESIAN_POINT( '', ( -498.000000000000, -298.000000000000, 76.0000000000000 ) );
#412 = CARTESIAN_POINT( '', ( -498.000000000000, -298.000000000000, 76.0000000000000 ) );
#413 = VECTOR( '', #470, 1000.00000000000 );
#414 = CARTESIAN_POINT( '', ( -498.000000000000, 298.000000000000, 76.0000000000000 ) );
#415 = VECTOR( '', #471, 1000.00000000000 );
#416 = CARTESIAN_POINT( '', ( 498.000000000000, -298.000000000000, 76.0000000000000 ) );
#417 = CARTESIAN_POINT( '', ( 498.000000000000, -298.000000000000, 76.0000000000000 ) );
#418 = VECTOR( '', #472, 1000.00000000000 );
#419 = CARTESIAN_POINT( '', ( 498.000000000000, -298.000000000000, 76.0000000000000 ) );
#420 = VECTOR( '', #473, 1000.00000000000 );
#421 = CARTESIAN_POINT( '', ( -498.000000000000, -298.000000000000, 76.0000000000000 ) );
#422 = VECTOR( '', #474, 1000.00000000000 );
#423 = CARTESIAN_POINT( '', ( -446.000000000011, -273.000000000000, 76.0000000000000 ) );
#424 = AXIS2_PLACEMENT_3D( '', #475, #476, #477 );
#425 = CARTESIAN_POINT( '', ( 445.999999999989, -273.000000000000, 76.0000000000000 ) );
#426 = AXIS2_PLACEMENT_3D( '', #478, #479, #480 );
#427 = CARTESIAN_POINT( '', ( 445.999999999989, 219.000000000000, 76.0000000000000 ) );
#428 = AXIS2_PLACEMENT_3D( '', #481, #482, #483 );
#429 = CARTESIAN_POINT( '', ( -446.000000000011, 219.000000000000, 76.0000000000000 ) );
#430 = AXIS2_PLACEMENT_3D( '', #484, #485, #486 );
#431 = CARTESIAN_POINT( '', ( -376.000000000000, 246.000000000000, 76.0000000000000 ) );
#432 = AXIS2_PLACEMENT_3D( '', #487, #488, #489 );
#433 = CARTESIAN_POINT( '', ( 398.000000000000, 246.000000000000, 76.0000000000000 ) );
#434 = AXIS2_PLACEMENT_3D( '', #490, #491, #492 );
#435 = CARTESIAN_POINT( '', ( 398.000000000000, -246.000000000000, 76.0000000000000 ) );
#436 = AXIS2_PLACEMENT_3D( '', #493, #494, #495 );
#437 = CARTESIAN_POINT( '', ( -376.000000000000, -246.000000000000, 76.0000000000000 ) );
#438 = AXIS2_PLACEMENT_3D( '', #496, #497, #498 );
#439 = DIRECTION( '', ( -1.00000000000000, 0.000000000000000, 0.000000000000000 ) );
#440 = DIRECTION( '', ( 0.000000000000000, 0.000000000000000, -1.00000000000000 ) );
#441 = DIRECTION( '', ( -1.00000000000000, 0.000000000000000, 0.000000000000000 ) );
#442 = DIRECTION( '', ( 0.000000000000000, 0.000000000000000, -1.00000000000000 ) );
#443 = CARTESIAN_POINT( '', ( -446.000000000011, -246.000000000000, 0.000000000000000 ) );
#444 = DIRECTION( '', ( 0.000000000000000, 0.000000000000000, -1.00000000000000 ) );
#445 = DIRECTION( '', ( -1.00000000000000, 0.000000000000000, 0.000000000000000 ) );
#446 = CARTESIAN_POINT( '', ( 445.999999999989, -246.000000000000, 0.000000000000000 ) );
#447 = DIRECTION( '', ( 0.000000000000000, 0.000000000000000, -1.00000000000000 ) );
#448 = DIRECTION( '', ( -1.00000000000000, 0.000000000000000, 0.000000000000000 ) );
#449 = CARTESIAN_POINT( '', ( 445.999999999989, 246.000000000000, 0.000000000000000 ) );
#450 = DIRECTION( '', ( 0.000000000000000, 0.000000000000000, -1.00000000000000 ) );
#451 = DIRECTION( '', ( -1.00000000000000, 0.000000000000000, 0.000000000000000 ) );
#452 = CARTESIAN_POINT( '', ( -446.000000000011, 246.000000000000, 0.000000000000000 ) );
#453 = DIRECTION( '', ( 0.000000000000000, 0.000000000000000, -1.00000000000000 ) );
#454 = DIRECTION( '', ( -1.00000000000000, 0.000000000000000, 0.000000000000000 ) );
#455 = CARTESIAN_POINT( '', ( -387.000000000000, 246.000000000000, 0.000000000000000 ) );
#456 = DIRECTION( '', ( 0.000000000000000, 0.000000000000000, -1.00000000000000 ) );
#457 = DIRECTION( '', ( -1.00000000000000, 0.000000000000000, 0.000000000000000 ) );
#458 = CARTESIAN_POINT( '', ( 387.000000000000, 246.000000000000, 0.000000000000000 ) );
#459 = DIRECTION( '', ( 0.000000000000000, 0.000000000000000, -1.00000000000000 ) );
#460 = DIRECTION( '', ( -1.00000000000000, 0.000000000000000, 0.000000000000000 ) );
#461 = CARTESIAN_POINT( '', ( 387.000000000000, -246.000000000000, 0.000000000000000 ) );
#462 = DIRECTION( '', ( 0.000000000000000, 0.000000000000000, -1.00000000000000 ) );
#463 = DIRECTION( '', ( -1.00000000000000, 0.000000000000000, 0.000000000000000 ) );
#464 = CARTESIAN_POINT( '', ( -387.000000000000, -246.000000000000, 0.000000000000000 ) );
#465 = DIRECTION( '', ( 0.000000000000000, 0.000000000000000, -1.00000000000000 ) );
#466 = DIRECTION( '', ( -1.00000000000000, 0.000000000000000, 0.000000000000000 ) );
#467 = DIRECTION( '', ( 0.000000000000000, 1.00000000000000, 0.000000000000000 ) );
#468 = DIRECTION( '', ( 1.00000000000000, 0.000000000000000, 0.000000000000000 ) );
#469 = DIRECTION( '', ( 9.31395154886876E-017, -1.00000000000000, 0.000000000000000 ) );
#470 = DIRECTION( '', ( 0.000000000000000, 0.000000000000000, -1.00000000000000 ) );
#471 = DIRECTION( '', ( 9.31395154886876E-017, -1.00000000000000, 0.000000000000000 ) );
#472 = DIRECTION( '', ( 0.000000000000000, 1.00000000000000, 0.000000000000000 ) );
#473 = DIRECTION( '', ( 0.000000000000000, 0.000000000000000, -1.00000000000000 ) );
#474 = DIRECTION( '', ( 1.00000000000000, 0.000000000000000, 0.000000000000000 ) );
#475 = CARTESIAN_POINT( '', ( -446.000000000011, -246.000000000000, 76.0000000000000 ) );
#476 = DIRECTION( '', ( 0.000000000000000, 0.000000000000000, -1.00000000000000 ) );
#477 = DIRECTION( '', ( 0.000000000000000, -1.00000000000000, 0.000000000000000 ) );
#478 = CARTESIAN_POINT( '', ( 445.999999999989, -246.000000000000, 76.0000000000000 ) );
#479 = DIRECTION( '', ( 0.000000000000000, 0.000000000000000, -1.00000000000000 ) );
#480 = DIRECTION( '', ( 0.000000000000000, -1.00000000000000, 0.000000000000000 ) );
#481 = CARTESIAN_POINT( '', ( 445.999999999989, 246.000000000000, 76.0000000000000 ) );
#482 = DIRECTION( '', ( 0.000000000000000, 0.000000000000000, -1.00000000000000 ) );
#483 = DIRECTION( '', ( 0.000000000000000, -1.00000000000000, 0.000000000000000 ) );
#484 = CARTESIAN_POINT( '', ( -446.000000000011, 246.000000000000, 76.0000000000000 ) );
#485 = DIRECTION( '', ( 0.000000000000000, 0.000000000000000, -1.00000000000000 ) );
#486 = DIRECTION( '', ( 0.000000000000000, -1.00000000000000, 0.000000000000000 ) );
#487 = CARTESIAN_POINT( '', ( -387.000000000000, 246.000000000000, 76.0000000000000 ) );
#488 = DIRECTION( '', ( 0.000000000000000, 0.000000000000000, 1.00000000000000 ) );
#489 = DIRECTION( '', ( 1.00000000000000, 0.000000000000000, 0.000000000000000 ) );
#490 = CARTESIAN_POINT( '', ( 387.000000000000, 246.000000000000, 76.0000000000000 ) );
#491 = DIRECTION( '', ( 0.000000000000000, 0.000000000000000, 1.00000000000000 ) );
#492 = DIRECTION( '', ( 1.00000000000000, 0.000000000000000, 0.000000000000000 ) );
#493 = CARTESIAN_POINT( '', ( 387.000000000000, -246.000000000000, 76.0000000000000 ) );
#494 = DIRECTION( '', ( 0.000000000000000, 0.000000000000000, 1.00000000000000 ) );
#495 = DIRECTION( '', ( 1.00000000000000, 0.000000000000000, 0.000000000000000 ) );
#496 = CARTESIAN_POINT( '', ( -387.000000000000, -246.000000000000, 76.0000000000000 ) );
#497 = DIRECTION( '', ( 0.000000000000000, 0.000000000000000, 1.00000000000000 ) );
#498 = DIRECTION( '', ( 1.00000000000000, 0.000000000000000, 0.000000000000000 ) );
ENDSEC;
END-ISO-10303-21;
