ISO-10303-21;
HEADER;
FILE_DESCRIPTION( ( 'Unknown' ), '1' );
FILE_NAME( 'C:/Documents and Settings/BEATRIZ/Escritorio/ORYMO/PLACAS PARA MOLDES OS/PLACAS OS-L/OS_L_100x130x006_/OS_L_100x130x006_.stp', 'Unknown', ( 'Unknown' ), ( 'Unknown' ), 'XStep 1.0', 'Unknown', ' ' );
FILE_SCHEMA( ( 'CONFIG_CONTROL_DESIGN' ) );
ENDSEC;
DATA;
#1 = DESIGN_CONTEXT( '', #27, 'design' );
#2 = APPLICATION_PROTOCOL_DEFINITION( 'INTERNATIONAL STANDARD', 'config_control_design', 1994, #27 );
#3 = PRODUCT_CATEGORY_RELATIONSHIP( 'NONE', 'NONE', #28, #29 );
#4 = DATE_AND_TIME( #30, #31 );
#5 = DATE_TIME_ROLE( 'creation_date' );
#6 = DATE_TIME_ROLE( 'classification_date' );
#7 = PERSON_AND_ORGANIZATION_ROLE( 'creator' );
#8 = PERSON_AND_ORGANIZATION_ROLE( 'design_supplier' );
#9 = PERSON_AND_ORGANIZATION_ROLE( 'classification_officer' );
#10 = PERSON_AND_ORGANIZATION_ROLE( 'design_owner' );
#11 = APPROVAL_PERSON_ORGANIZATION( #32, #33, #34 );
#12 = APPROVAL_DATE_TIME( #4, #33 );
#13 = CC_DESIGN_APPROVAL( #33, ( #35, #36, #37 ) );
#14 = CC_DESIGN_DATE_AND_TIME_ASSIGNMENT( #4, #5, ( #37 ) );
#15 = CC_DESIGN_DATE_AND_TIME_ASSIGNMENT( #4, #6, ( #35 ) );
#16 = CC_DESIGN_PERSON_AND_ORGANIZATION_ASSIGNMENT( #32, #10, ( #38 ) );
#17 = CC_DESIGN_PERSON_AND_ORGANIZATION_ASSIGNMENT( #32, #7, ( #37 ) );
#18 = CC_DESIGN_PERSON_AND_ORGANIZATION_ASSIGNMENT( #32, #7, ( #36 ) );
#19 = CC_DESIGN_PERSON_AND_ORGANIZATION_ASSIGNMENT( #32, #8, ( #36 ) );
#20 = CC_DESIGN_SECURITY_CLASSIFICATION( #35, ( #36 ) );
#21 = CC_DESIGN_PERSON_AND_ORGANIZATION_ASSIGNMENT( #32, #9, ( #35 ) );
#22 = SHAPE_DEFINITION_REPRESENTATION( #39, #40 );
#23 =  ( GEOMETRIC_REPRESENTATION_CONTEXT( 3 )GLOBAL_UNCERTAINTY_ASSIGNED_CONTEXT( ( #43 ) )GLOBAL_UNIT_ASSIGNED_CONTEXT( ( #45, #46, #47 ) )REPRESENTATION_CONTEXT( 'NONE', 'WORKSPACE' ) );
#27 = APPLICATION_CONTEXT( 'CONFIGURATION CONTROLLED 3D DESIGNS OF MECHANICAL PARTS AND ASSEMBLIES' );
#28 = PRODUCT_CATEGORY( 'part', 'NONE' );
#29 = PRODUCT_RELATED_PRODUCT_CATEGORY( 'detail', ' ', ( #38 ) );
#30 = CALENDAR_DATE( 2004, 16, 5 );
#31 = LOCAL_TIME( 15, 30, 27.0000000000000, #49 );
#32 = PERSON_AND_ORGANIZATION( #50, #51 );
#33 = APPROVAL( #52, 'SOLID MODEL' );
#34 = APPROVAL_ROLE( 'APPROVED' );
#35 = SECURITY_CLASSIFICATION( '', '', #53 );
#36 = PRODUCT_DEFINITION_FORMATION_WITH_SPECIFIED_SOURCE( ' ', 'NONE', #38, .NOT_KNOWN. );
#37 = PRODUCT_DEFINITION( 'NONE', 'NONE', #36, #1 );
#38 = PRODUCT( '1', '1', 'PART-1-DESC', ( #54 ) );
#39 = PRODUCT_DEFINITION_SHAPE( 'NONE', 'NONE', #37 );
#40 = ADVANCED_BREP_SHAPE_REPRESENTATION( '1', ( #55, #56 ), #23 );
#43 = UNCERTAINTY_MEASURE_WITH_UNIT( LENGTH_MEASURE( 0.00100000000000000 ), #45, '', '' );
#45 =  ( CONVERSION_BASED_UNIT( 'MILLIMETRE', #59 )LENGTH_UNIT(  )NAMED_UNIT( #62 ) );
#46 =  ( CONVERSION_BASED_UNIT( 'RADIAN', #64 )NAMED_UNIT( #66 )PLANE_ANGLE_UNIT(  ) );
#47 =  ( NAMED_UNIT( #66 )SOLID_ANGLE_UNIT(  )SI_UNIT( $, .STERADIAN. ) );
#49 = COORDINATED_UNIVERSAL_TIME_OFFSET( 1, 0, .AHEAD. );
#50 = PERSON( '', 'UNSPECIFIED', $, $, $, $ );
#51 = ORGANIZATION( 'UNSPECIFIED', 'UNSPECIFIED', 'UNSPECIFIED' );
#52 = APPROVAL_STATUS( 'approved' );
#53 = SECURITY_CLASSIFICATION_LEVEL( 'unclassified' );
#54 = MECHANICAL_CONTEXT( '', #27, 'mechanical' );
#55 = MANIFOLD_SOLID_BREP( '1', #71 );
#56 = AXIS2_PLACEMENT_3D( '', #72, #73, #74 );
#59 = LENGTH_MEASURE_WITH_UNIT( LENGTH_MEASURE( 1.00000000000000 ), #75 );
#62 = DIMENSIONAL_EXPONENTS( 1.00000000000000, 0.000000000000000, 0.000000000000000, 0.000000000000000, 0.000000000000000, 0.000000000000000, 0.000000000000000 );
#64 = PLANE_ANGLE_MEASURE_WITH_UNIT( PLANE_ANGLE_MEASURE( 1.00000000000000 ), #76 );
#66 = DIMENSIONAL_EXPONENTS( 0.000000000000000, 0.000000000000000, 0.000000000000000, 0.000000000000000, 0.000000000000000, 0.000000000000000, 0.000000000000000 );
#71 = CLOSED_SHELL( '', ( #77, #78, #79, #80, #81, #82 ) );
#72 = CARTESIAN_POINT( '', ( 0.000000000000000, 0.000000000000000, 0.000000000000000 ) );
#73 = DIRECTION( '', ( 0.000000000000000, 0.000000000000000, 1.00000000000000 ) );
#74 = DIRECTION( '', ( 1.00000000000000, 0.000000000000000, 0.000000000000000 ) );
#75 =  ( NAMED_UNIT( #62 )LENGTH_UNIT(  )SI_UNIT( .MILLI., .METRE. ) );
#76 =  ( NAMED_UNIT( #66 )PLANE_ANGLE_UNIT(  )SI_UNIT( $, .RADIAN. ) );
#77 = ADVANCED_FACE( '', ( #85 ), #86, .F. );
#78 = ADVANCED_FACE( '', ( #87 ), #88, .F. );
#79 = ADVANCED_FACE( '', ( #89 ), #90, .F. );
#80 = ADVANCED_FACE( '', ( #91 ), #92, .F. );
#81 = ADVANCED_FACE( '', ( #93 ), #94, .F. );
#82 = ADVANCED_FACE( '', ( #95 ), #96, .T. );
#85 = FACE_OUTER_BOUND( '', #97, .T. );
#86 = PLANE( '', #98 );
#87 = FACE_OUTER_BOUND( '', #99, .T. );
#88 = PLANE( '', #100 );
#89 = FACE_OUTER_BOUND( '', #101, .T. );
#90 = PLANE( '', #102 );
#91 = FACE_OUTER_BOUND( '', #103, .T. );
#92 = PLANE( '', #104 );
#93 = FACE_OUTER_BOUND( '', #105, .T. );
#94 = PLANE( '', #106 );
#95 = FACE_OUTER_BOUND( '', #107, .T. );
#96 = PLANE( '', #108 );
#97 = EDGE_LOOP( '', ( #109, #110, #111, #112 ) );
#98 = AXIS2_PLACEMENT_3D( '', #113, #114, #115 );
#99 = EDGE_LOOP( '', ( #116, #117, #118, #119 ) );
#100 = AXIS2_PLACEMENT_3D( '', #120, #121, #122 );
#101 = EDGE_LOOP( '', ( #123, #124, #125, #126 ) );
#102 = AXIS2_PLACEMENT_3D( '', #127, #128, #129 );
#103 = EDGE_LOOP( '', ( #130, #131, #132, #133 ) );
#104 = AXIS2_PLACEMENT_3D( '', #134, #135, #136 );
#105 = EDGE_LOOP( '', ( #137, #138, #139, #140 ) );
#106 = AXIS2_PLACEMENT_3D( '', #141, #142, #143 );
#107 = EDGE_LOOP( '', ( #144, #145, #146, #147 ) );
#108 = AXIS2_PLACEMENT_3D( '', #148, #149, #150 );
#109 = ORIENTED_EDGE( '', *, *, #151, .T. );
#110 = ORIENTED_EDGE( '', *, *, #152, .F. );
#111 = ORIENTED_EDGE( '', *, *, #153, .F. );
#112 = ORIENTED_EDGE( '', *, *, #154, .T. );
#113 = CARTESIAN_POINT( '', ( 65.0000000000000, 29.0000000000000, 6.00000000000000 ) );
#114 = DIRECTION( '', ( -8.00641604296988E-017, -1.00000000000000, 0.000000000000000 ) );
#115 = DIRECTION( '', ( 1.00000000000000, -8.00641604296988E-017, 0.000000000000000 ) );
#116 = ORIENTED_EDGE( '', *, *, #151, .F. );
#117 = ORIENTED_EDGE( '', *, *, #155, .F. );
#118 = ORIENTED_EDGE( '', *, *, #156, .F. );
#119 = ORIENTED_EDGE( '', *, *, #157, .F. );
#120 = CARTESIAN_POINT( '', ( -65.0000000000000, 29.0000000000000, 0.000000000000000 ) );
#121 = DIRECTION( '', ( 0.000000000000000, 0.000000000000000, 1.00000000000000 ) );
#122 = DIRECTION( '', ( 1.00000000000000, 0.000000000000000, 0.000000000000000 ) );
#123 = ORIENTED_EDGE( '', *, *, #157, .T. );
#124 = ORIENTED_EDGE( '', *, *, #158, .F. );
#125 = ORIENTED_EDGE( '', *, *, #159, .F. );
#126 = ORIENTED_EDGE( '', *, *, #152, .T. );
#127 = CARTESIAN_POINT( '', ( -65.0000000000000, 29.0000000000000, 6.00000000000000 ) );
#128 = DIRECTION( '', ( 1.00000000000000, 0.000000000000000, 0.000000000000000 ) );
#129 = DIRECTION( '', ( 0.000000000000000, 0.000000000000000, -1.00000000000000 ) );
#130 = ORIENTED_EDGE( '', *, *, #156, .T. );
#131 = ORIENTED_EDGE( '', *, *, #160, .F. );
#132 = ORIENTED_EDGE( '', *, *, #161, .F. );
#133 = ORIENTED_EDGE( '', *, *, #158, .T. );
#134 = CARTESIAN_POINT( '', ( -65.0000000000000, -29.0000000000000, 6.00000000000000 ) );
#135 = DIRECTION( '', ( -1.06752213906265E-016, 1.00000000000000, 0.000000000000000 ) );
#136 = DIRECTION( '', ( -1.00000000000000, -1.06752213906265E-016, 0.000000000000000 ) );
#137 = ORIENTED_EDGE( '', *, *, #155, .T. );
#138 = ORIENTED_EDGE( '', *, *, #154, .F. );
#139 = ORIENTED_EDGE( '', *, *, #162, .F. );
#140 = ORIENTED_EDGE( '', *, *, #160, .T. );
#141 = CARTESIAN_POINT( '', ( 65.0000000000000, -29.0000000000000, 6.00000000000000 ) );
#142 = DIRECTION( '', ( -1.00000000000000, -2.39272203583008E-016, 0.000000000000000 ) );
#143 = DIRECTION( '', ( 2.39272203583008E-016, -1.00000000000000, 0.000000000000000 ) );
#144 = ORIENTED_EDGE( '', *, *, #153, .T. );
#145 = ORIENTED_EDGE( '', *, *, #159, .T. );
#146 = ORIENTED_EDGE( '', *, *, #161, .T. );
#147 = ORIENTED_EDGE( '', *, *, #162, .T. );
#148 = CARTESIAN_POINT( '', ( -65.0000000000000, 29.0000000000000, 6.00000000000000 ) );
#149 = DIRECTION( '', ( 0.000000000000000, 0.000000000000000, 1.00000000000000 ) );
#150 = DIRECTION( '', ( 1.00000000000000, 0.000000000000000, 0.000000000000000 ) );
#151 = EDGE_CURVE( '', #163, #164, #165, .T. );
#152 = EDGE_CURVE( '', #166, #164, #167, .T. );
#153 = EDGE_CURVE( '', #168, #166, #169, .T. );
#154 = EDGE_CURVE( '', #168, #163, #170, .T. );
#155 = EDGE_CURVE( '', #171, #163, #172, .T. );
#156 = EDGE_CURVE( '', #173, #171, #174, .T. );
#157 = EDGE_CURVE( '', #164, #173, #175, .T. );
#158 = EDGE_CURVE( '', #176, #173, #177, .T. );
#159 = EDGE_CURVE( '', #166, #176, #178, .T. );
#160 = EDGE_CURVE( '', #179, #171, #180, .T. );
#161 = EDGE_CURVE( '', #176, #179, #181, .T. );
#162 = EDGE_CURVE( '', #179, #168, #182, .T. );
#163 = VERTEX_POINT( '', #183 );
#164 = VERTEX_POINT( '', #184 );
#165 = LINE( '', #185, #186 );
#166 = VERTEX_POINT( '', #187 );
#167 = LINE( '', #188, #189 );
#168 = VERTEX_POINT( '', #190 );
#169 = LINE( '', #191, #192 );
#170 = LINE( '', #193, #194 );
#171 = VERTEX_POINT( '', #195 );
#172 = LINE( '', #196, #197 );
#173 = VERTEX_POINT( '', #198 );
#174 = LINE( '', #199, #200 );
#175 = LINE( '', #201, #202 );
#176 = VERTEX_POINT( '', #203 );
#177 = LINE( '', #204, #205 );
#178 = LINE( '', #206, #207 );
#179 = VERTEX_POINT( '', #208 );
#180 = LINE( '', #209, #210 );
#181 = LINE( '', #211, #212 );
#182 = LINE( '', #213, #214 );
#183 = CARTESIAN_POINT( '', ( 65.0000000000000, 29.0000000000000, 0.000000000000000 ) );
#184 = CARTESIAN_POINT( '', ( -65.0000000000000, 29.0000000000000, 0.000000000000000 ) );
#185 = CARTESIAN_POINT( '', ( 65.0000000000000, 29.0000000000000, 0.000000000000000 ) );
#186 = VECTOR( '', #215, 1000.00000000000 );
#187 = CARTESIAN_POINT( '', ( -65.0000000000000, 29.0000000000000, 6.00000000000000 ) );
#188 = CARTESIAN_POINT( '', ( -65.0000000000000, 29.0000000000000, 6.00000000000000 ) );
#189 = VECTOR( '', #216, 1000.00000000000 );
#190 = CARTESIAN_POINT( '', ( 65.0000000000000, 29.0000000000000, 6.00000000000000 ) );
#191 = CARTESIAN_POINT( '', ( 65.0000000000000, 29.0000000000000, 6.00000000000000 ) );
#192 = VECTOR( '', #217, 1000.00000000000 );
#193 = CARTESIAN_POINT( '', ( 65.0000000000000, 29.0000000000000, 6.00000000000000 ) );
#194 = VECTOR( '', #218, 1000.00000000000 );
#195 = CARTESIAN_POINT( '', ( 65.0000000000000, -29.0000000000000, 0.000000000000000 ) );
#196 = CARTESIAN_POINT( '', ( 65.0000000000000, -29.0000000000000, 0.000000000000000 ) );
#197 = VECTOR( '', #219, 1000.00000000000 );
#198 = CARTESIAN_POINT( '', ( -65.0000000000000, -29.0000000000000, 0.000000000000000 ) );
#199 = CARTESIAN_POINT( '', ( -65.0000000000000, -29.0000000000000, 0.000000000000000 ) );
#200 = VECTOR( '', #220, 1000.00000000000 );
#201 = CARTESIAN_POINT( '', ( -65.0000000000000, 29.0000000000000, 0.000000000000000 ) );
#202 = VECTOR( '', #221, 1000.00000000000 );
#203 = CARTESIAN_POINT( '', ( -65.0000000000000, -29.0000000000000, 6.00000000000000 ) );
#204 = CARTESIAN_POINT( '', ( -65.0000000000000, -29.0000000000000, 6.00000000000000 ) );
#205 = VECTOR( '', #222, 1000.00000000000 );
#206 = CARTESIAN_POINT( '', ( -65.0000000000000, 29.0000000000000, 6.00000000000000 ) );
#207 = VECTOR( '', #223, 1000.00000000000 );
#208 = CARTESIAN_POINT( '', ( 65.0000000000000, -29.0000000000000, 6.00000000000000 ) );
#209 = CARTESIAN_POINT( '', ( 65.0000000000000, -29.0000000000000, 6.00000000000000 ) );
#210 = VECTOR( '', #224, 1000.00000000000 );
#211 = CARTESIAN_POINT( '', ( -65.0000000000000, -29.0000000000000, 6.00000000000000 ) );
#212 = VECTOR( '', #225, 1000.00000000000 );
#213 = CARTESIAN_POINT( '', ( 65.0000000000000, -29.0000000000000, 6.00000000000000 ) );
#214 = VECTOR( '', #226, 1000.00000000000 );
#215 = DIRECTION( '', ( -1.00000000000000, 8.00641604296988E-017, 0.000000000000000 ) );
#216 = DIRECTION( '', ( 0.000000000000000, 0.000000000000000, -1.00000000000000 ) );
#217 = DIRECTION( '', ( -1.00000000000000, 8.00641604296988E-017, 0.000000000000000 ) );
#218 = DIRECTION( '', ( 0.000000000000000, 0.000000000000000, -1.00000000000000 ) );
#219 = DIRECTION( '', ( -2.39272203583008E-016, 1.00000000000000, 0.000000000000000 ) );
#220 = DIRECTION( '', ( 1.00000000000000, 1.06752213906265E-016, 0.000000000000000 ) );
#221 = DIRECTION( '', ( 0.000000000000000, -1.00000000000000, 0.000000000000000 ) );
#222 = DIRECTION( '', ( 0.000000000000000, 0.000000000000000, -1.00000000000000 ) );
#223 = DIRECTION( '', ( 0.000000000000000, -1.00000000000000, 0.000000000000000 ) );
#224 = DIRECTION( '', ( 0.000000000000000, 0.000000000000000, -1.00000000000000 ) );
#225 = DIRECTION( '', ( 1.00000000000000, 1.06752213906265E-016, 0.000000000000000 ) );
#226 = DIRECTION( '', ( -2.39272203583008E-016, 1.00000000000000, 0.000000000000000 ) );
ENDSEC;
END-ISO-10303-21;
