ISO-10303-21;
HEADER;
FILE_DESCRIPTION( ( 'Unknown' ), '1' );
FILE_NAME( 'C:/Documents and Settings/BEATRIZ/Escritorio/ORYMO/COMPONENTES/CASQUILLOS/CASQUILLO CCE/CCE_25x10/CCE_25x10.stp', 'Unknown', ( 'Unknown' ), ( 'Unknown' ), 'XStep 1.0', 'Unknown', ' ' );
FILE_SCHEMA( ( 'CONFIG_CONTROL_DESIGN' ) );
ENDSEC;
DATA;
#1 = DESIGN_CONTEXT( '', #27, 'design' );
#2 = APPLICATION_PROTOCOL_DEFINITION( 'INTERNATIONAL STANDARD', 'config_control_design', 1994, #27 );
#3 = PRODUCT_CATEGORY_RELATIONSHIP( 'NONE', 'NONE', #28, #29 );
#4 = DATE_AND_TIME( #30, #31 );
#5 = DATE_TIME_ROLE( 'creation_date' );
#6 = DATE_TIME_ROLE( 'classification_date' );
#7 = PERSON_AND_ORGANIZATION_ROLE( 'creator' );
#8 = PERSON_AND_ORGANIZATION_ROLE( 'design_supplier' );
#9 = PERSON_AND_ORGANIZATION_ROLE( 'classification_officer' );
#10 = PERSON_AND_ORGANIZATION_ROLE( 'design_owner' );
#11 = APPROVAL_PERSON_ORGANIZATION( #32, #33, #34 );
#12 = APPROVAL_DATE_TIME( #4, #33 );
#13 = CC_DESIGN_APPROVAL( #33, ( #35, #36, #37 ) );
#14 = CC_DESIGN_DATE_AND_TIME_ASSIGNMENT( #4, #5, ( #37 ) );
#15 = CC_DESIGN_DATE_AND_TIME_ASSIGNMENT( #4, #6, ( #35 ) );
#16 = CC_DESIGN_PERSON_AND_ORGANIZATION_ASSIGNMENT( #32, #10, ( #38 ) );
#17 = CC_DESIGN_PERSON_AND_ORGANIZATION_ASSIGNMENT( #32, #7, ( #37 ) );
#18 = CC_DESIGN_PERSON_AND_ORGANIZATION_ASSIGNMENT( #32, #7, ( #36 ) );
#19 = CC_DESIGN_PERSON_AND_ORGANIZATION_ASSIGNMENT( #32, #8, ( #36 ) );
#20 = CC_DESIGN_SECURITY_CLASSIFICATION( #35, ( #36 ) );
#21 = CC_DESIGN_PERSON_AND_ORGANIZATION_ASSIGNMENT( #32, #9, ( #35 ) );
#22 = SHAPE_DEFINITION_REPRESENTATION( #39, #40 );
#23 =  ( GEOMETRIC_REPRESENTATION_CONTEXT( 3 )GLOBAL_UNCERTAINTY_ASSIGNED_CONTEXT( ( #43 ) )GLOBAL_UNIT_ASSIGNED_CONTEXT( ( #45, #46, #47 ) )REPRESENTATION_CONTEXT( 'NONE', 'WORKSPACE' ) );
#27 = APPLICATION_CONTEXT( 'CONFIGURATION CONTROLLED 3D DESIGNS OF MECHANICAL PARTS AND ASSEMBLIES' );
#28 = PRODUCT_CATEGORY( 'part', 'NONE' );
#29 = PRODUCT_RELATED_PRODUCT_CATEGORY( 'detail', ' ', ( #38 ) );
#30 = CALENDAR_DATE( 2004, 19, 8 );
#31 = LOCAL_TIME( 23, 12, 38.0000000000000, #49 );
#32 = PERSON_AND_ORGANIZATION( #50, #51 );
#33 = APPROVAL( #52, 'SOLID MODEL' );
#34 = APPROVAL_ROLE( 'APPROVED' );
#35 = SECURITY_CLASSIFICATION( '', '', #53 );
#36 = PRODUCT_DEFINITION_FORMATION_WITH_SPECIFIED_SOURCE( ' ', 'NONE', #38, .NOT_KNOWN. );
#37 = PRODUCT_DEFINITION( 'NONE', 'NONE', #36, #1 );
#38 = PRODUCT( '1', '1', 'PART-1-DESC', ( #54 ) );
#39 = PRODUCT_DEFINITION_SHAPE( 'NONE', 'NONE', #37 );
#40 = ADVANCED_BREP_SHAPE_REPRESENTATION( '1', ( #55, #56 ), #23 );
#43 = UNCERTAINTY_MEASURE_WITH_UNIT( LENGTH_MEASURE( 0.00100000000000000 ), #45, '', '' );
#45 =  ( CONVERSION_BASED_UNIT( 'MILLIMETRE', #59 )LENGTH_UNIT(  )NAMED_UNIT( #62 ) );
#46 =  ( CONVERSION_BASED_UNIT( 'RADIAN', #64 )NAMED_UNIT( #66 )PLANE_ANGLE_UNIT(  ) );
#47 =  ( NAMED_UNIT( #66 )SOLID_ANGLE_UNIT(  )SI_UNIT( $, .STERADIAN. ) );
#49 = COORDINATED_UNIVERSAL_TIME_OFFSET( 1, 0, .AHEAD. );
#50 = PERSON( '', 'UNSPECIFIED', $, $, $, $ );
#51 = ORGANIZATION( 'UNSPECIFIED', 'UNSPECIFIED', 'UNSPECIFIED' );
#52 = APPROVAL_STATUS( 'approved' );
#53 = SECURITY_CLASSIFICATION_LEVEL( 'unclassified' );
#54 = MECHANICAL_CONTEXT( '', #27, 'mechanical' );
#55 = MANIFOLD_SOLID_BREP( '1', #71 );
#56 = AXIS2_PLACEMENT_3D( '', #72, #73, #74 );
#59 = LENGTH_MEASURE_WITH_UNIT( LENGTH_MEASURE( 1.00000000000000 ), #75 );
#62 = DIMENSIONAL_EXPONENTS( 1.00000000000000, 0.000000000000000, 0.000000000000000, 0.000000000000000, 0.000000000000000, 0.000000000000000, 0.000000000000000 );
#64 = PLANE_ANGLE_MEASURE_WITH_UNIT( PLANE_ANGLE_MEASURE( 1.00000000000000 ), #76 );
#66 = DIMENSIONAL_EXPONENTS( 0.000000000000000, 0.000000000000000, 0.000000000000000, 0.000000000000000, 0.000000000000000, 0.000000000000000, 0.000000000000000 );
#71 = CLOSED_SHELL( '', ( #77, #78, #79, #80, #81, #82 ) );
#72 = CARTESIAN_POINT( '', ( 0.000000000000000, 0.000000000000000, 0.000000000000000 ) );
#73 = DIRECTION( '', ( 0.000000000000000, 0.000000000000000, 1.00000000000000 ) );
#74 = DIRECTION( '', ( 1.00000000000000, 0.000000000000000, 0.000000000000000 ) );
#75 =  ( NAMED_UNIT( #62 )LENGTH_UNIT(  )SI_UNIT( .MILLI., .METRE. ) );
#76 =  ( NAMED_UNIT( #66 )PLANE_ANGLE_UNIT(  )SI_UNIT( $, .RADIAN. ) );
#77 = ADVANCED_FACE( '', ( #85, #86 ), #87, .T. );
#78 = ADVANCED_FACE( '', ( #88, #89 ), #90, .F. );
#79 = ADVANCED_FACE( '', ( #91, #92 ), #93, .T. );
#80 = ADVANCED_FACE( '', ( #94, #95 ), #96, .T. );
#81 = ADVANCED_FACE( '', ( #97, #98 ), #99, .T. );
#82 = ADVANCED_FACE( '', ( #100, #101 ), #102, .T. );
#85 = FACE_OUTER_BOUND( '', #103, .T. );
#86 = FACE_BOUND( '', #104, .T. );
#87 = PLANE( '', #105 );
#88 = FACE_OUTER_BOUND( '', #106, .T. );
#89 = FACE_OUTER_BOUND( '', #107, .T. );
#90 = CYLINDRICAL_SURFACE( '', #108, 10.5000000000000 );
#91 = FACE_OUTER_BOUND( '', #109, .T. );
#92 = FACE_OUTER_BOUND( '', #110, .T. );
#93 = CYLINDRICAL_SURFACE( '', #111, 12.5000000000000 );
#94 = FACE_OUTER_BOUND( '', #112, .T. );
#95 = FACE_BOUND( '', #113, .T. );
#96 = PLANE( '', #114 );
#97 = FACE_BOUND( '', #115, .T. );
#98 = FACE_OUTER_BOUND( '', #116, .T. );
#99 = CONICAL_SURFACE( '', #117, 12.5000000000000, 0.785398163397448 );
#100 = FACE_OUTER_BOUND( '', #118, .T. );
#101 = FACE_BOUND( '', #119, .T. );
#102 = CONICAL_SURFACE( '', #120, 12.0000000000000, 0.785398163397448 );
#103 = EDGE_LOOP( '', ( #121 ) );
#104 = EDGE_LOOP( '', ( #122 ) );
#105 = AXIS2_PLACEMENT_3D( '', #123, #124, #125 );
#106 = EDGE_LOOP( '', ( #126 ) );
#107 = EDGE_LOOP( '', ( #127 ) );
#108 = AXIS2_PLACEMENT_3D( '', #128, #129, #130 );
#109 = EDGE_LOOP( '', ( #131 ) );
#110 = EDGE_LOOP( '', ( #132 ) );
#111 = AXIS2_PLACEMENT_3D( '', #133, #134, #135 );
#112 = EDGE_LOOP( '', ( #136 ) );
#113 = EDGE_LOOP( '', ( #137 ) );
#114 = AXIS2_PLACEMENT_3D( '', #138, #139, #140 );
#115 = EDGE_LOOP( '', ( #141 ) );
#116 = EDGE_LOOP( '', ( #142 ) );
#117 = AXIS2_PLACEMENT_3D( '', #143, #144, #145 );
#118 = EDGE_LOOP( '', ( #146 ) );
#119 = EDGE_LOOP( '', ( #147 ) );
#120 = AXIS2_PLACEMENT_3D( '', #148, #149, #150 );
#121 = ORIENTED_EDGE( '', *, *, #151, .T. );
#122 = ORIENTED_EDGE( '', *, *, #152, .F. );
#123 = CARTESIAN_POINT( '', ( 3.30643715532042E-015, 0.000000000000000, 6.93889390390723E-015 ) );
#124 = DIRECTION( '', ( -1.00000000000000, 0.000000000000000, 0.000000000000000 ) );
#125 = DIRECTION( '', ( 0.000000000000000, 0.000000000000000, 1.00000000000000 ) );
#126 = ORIENTED_EDGE( '', *, *, #153, .F. );
#127 = ORIENTED_EDGE( '', *, *, #152, .T. );
#128 = CARTESIAN_POINT( '', ( 10.0000000000000, 0.000000000000000, 7.34763812293426E-015 ) );
#129 = DIRECTION( '', ( 1.00000000000000, 0.000000000000000, 0.000000000000000 ) );
#130 = DIRECTION( '', ( 0.000000000000000, 0.000000000000000, 1.00000000000000 ) );
#131 = ORIENTED_EDGE( '', *, *, #154, .T. );
#132 = ORIENTED_EDGE( '', *, *, #155, .T. );
#133 = CARTESIAN_POINT( '', ( 10.0000000000000, 0.000000000000000, 7.34763812293426E-015 ) );
#134 = DIRECTION( '', ( 1.00000000000000, 0.000000000000000, 0.000000000000000 ) );
#135 = DIRECTION( '', ( 0.000000000000000, 0.000000000000000, 1.00000000000000 ) );
#136 = ORIENTED_EDGE( '', *, *, #156, .T. );
#137 = ORIENTED_EDGE( '', *, *, #153, .T. );
#138 = CARTESIAN_POINT( '', ( 10.0000000000000, 0.000000000000000, 12.5000000000000 ) );
#139 = DIRECTION( '', ( 1.00000000000000, 0.000000000000000, 0.000000000000000 ) );
#140 = DIRECTION( '', ( 0.000000000000000, 0.000000000000000, -1.00000000000000 ) );
#141 = ORIENTED_EDGE( '', *, *, #156, .F. );
#142 = ORIENTED_EDGE( '', *, *, #154, .F. );
#143 = CARTESIAN_POINT( '', ( 9.50000000000001, 0.000000000000000, 7.34763812293426E-015 ) );
#144 = DIRECTION( '', ( -1.00000000000000, 0.000000000000000, 0.000000000000000 ) );
#145 = DIRECTION( '', ( 0.000000000000000, 0.000000000000000, 1.00000000000000 ) );
#146 = ORIENTED_EDGE( '', *, *, #155, .F. );
#147 = ORIENTED_EDGE( '', *, *, #151, .F. );
#148 = CARTESIAN_POINT( '', ( 3.46944695195361E-015, 0.000000000000000, 7.34763812293426E-015 ) );
#149 = DIRECTION( '', ( 1.00000000000000, 0.000000000000000, 0.000000000000000 ) );
#150 = DIRECTION( '', ( 0.000000000000000, 0.000000000000000, -1.00000000000000 ) );
#151 = EDGE_CURVE( '', #157, #157, #158, .T. );
#152 = EDGE_CURVE( '', #159, #159, #160, .T. );
#153 = EDGE_CURVE( '', #161, #161, #162, .T. );
#154 = EDGE_CURVE( '', #163, #163, #164, .F. );
#155 = EDGE_CURVE( '', #165, #165, #166, .F. );
#156 = EDGE_CURVE( '', #167, #167, #168, .T. );
#157 = VERTEX_POINT( '', #169 );
#158 = CIRCLE( '', #170, 12.0000000000000 );
#159 = VERTEX_POINT( '', #171 );
#160 = CIRCLE( '', #172, 10.5000000000000 );
#161 = VERTEX_POINT( '', #173 );
#162 = CIRCLE( '', #174, 10.5000000000000 );
#163 = VERTEX_POINT( '', #175 );
#164 = CIRCLE( '', #176, 12.5000000000000 );
#165 = VERTEX_POINT( '', #177 );
#166 = CIRCLE( '', #178, 12.5000000000000 );
#167 = VERTEX_POINT( '', #179 );
#168 = CIRCLE( '', #180, 12.0000000000000 );
#169 = CARTESIAN_POINT( '', ( 3.30643715532042E-015, 0.000000000000000, 12.0000000000000 ) );
#170 = AXIS2_PLACEMENT_3D( '', #181, #182, #183 );
#171 = CARTESIAN_POINT( '', ( 6.93889390390723E-015, 0.000000000000000, 10.5000000000000 ) );
#172 = AXIS2_PLACEMENT_3D( '', #184, #185, #186 );
#173 = CARTESIAN_POINT( '', ( 10.0000000000000, 0.000000000000000, 10.5000000000000 ) );
#174 = AXIS2_PLACEMENT_3D( '', #187, #188, #189 );
#175 = CARTESIAN_POINT( '', ( 9.50000000000001, 0.000000000000000, -12.5000000000000 ) );
#176 = AXIS2_PLACEMENT_3D( '', #190, #191, #192 );
#177 = CARTESIAN_POINT( '', ( 0.500000000000004, 0.000000000000000, 12.5000000000000 ) );
#178 = AXIS2_PLACEMENT_3D( '', #193, #194, #195 );
#179 = CARTESIAN_POINT( '', ( 10.0000000000000, 0.000000000000000, -12.0000000000000 ) );
#180 = AXIS2_PLACEMENT_3D( '', #196, #197, #198 );
#181 = CARTESIAN_POINT( '', ( 3.30643715532042E-015, 0.000000000000000, 7.34763812293426E-015 ) );
#182 = DIRECTION( '', ( -1.00000000000000, 0.000000000000000, 0.000000000000000 ) );
#183 = DIRECTION( '', ( 0.000000000000000, 0.000000000000000, 1.00000000000000 ) );
#184 = CARTESIAN_POINT( '', ( 6.93889390390723E-015, 0.000000000000000, 7.34763812293426E-015 ) );
#185 = DIRECTION( '', ( -1.00000000000000, 0.000000000000000, 0.000000000000000 ) );
#186 = DIRECTION( '', ( 0.000000000000000, 0.000000000000000, 1.00000000000000 ) );
#187 = CARTESIAN_POINT( '', ( 10.0000000000000, 0.000000000000000, 7.34763812293426E-015 ) );
#188 = DIRECTION( '', ( -1.00000000000000, 0.000000000000000, 0.000000000000000 ) );
#189 = DIRECTION( '', ( 0.000000000000000, 0.000000000000000, 1.00000000000000 ) );
#190 = CARTESIAN_POINT( '', ( 9.50000000000001, 0.000000000000000, 7.34763812293426E-015 ) );
#191 = DIRECTION( '', ( 1.00000000000000, 0.000000000000000, 0.000000000000000 ) );
#192 = DIRECTION( '', ( 0.000000000000000, 0.000000000000000, -1.00000000000000 ) );
#193 = CARTESIAN_POINT( '', ( 0.500000000000004, 0.000000000000000, 7.34763812293426E-015 ) );
#194 = DIRECTION( '', ( -1.00000000000000, 0.000000000000000, 0.000000000000000 ) );
#195 = DIRECTION( '', ( 0.000000000000000, 0.000000000000000, 1.00000000000000 ) );
#196 = CARTESIAN_POINT( '', ( 10.0000000000000, 0.000000000000000, 7.34763812293426E-015 ) );
#197 = DIRECTION( '', ( 1.00000000000000, 0.000000000000000, 0.000000000000000 ) );
#198 = DIRECTION( '', ( 0.000000000000000, 0.000000000000000, -1.00000000000000 ) );
ENDSEC;
END-ISO-10303-21;
