ISO-10303-21;
HEADER;
FILE_DESCRIPTION( ( 'Unknown' ), '1' );
FILE_NAME( 'C:/Documents and Settings/BEATRIZ/Escritorio/ORYMO/COMPONENTES/CASQUILLOS/CASQUILLOS CV2S/CV2S_20x115/CV2S_20x115.stp', 'Unknown', ( 'Unknown' ), ( 'Unknown' ), 'XStep 1.0', 'Unknown', ' ' );
FILE_SCHEMA( ( 'CONFIG_CONTROL_DESIGN' ) );
ENDSEC;
DATA;
#1 = DESIGN_CONTEXT( '', #27, 'design' );
#2 = APPLICATION_PROTOCOL_DEFINITION( 'INTERNATIONAL STANDARD', 'config_control_design', 1994, #27 );
#3 = PRODUCT_CATEGORY_RELATIONSHIP( 'NONE', 'NONE', #28, #29 );
#4 = DATE_AND_TIME( #30, #31 );
#5 = DATE_TIME_ROLE( 'creation_date' );
#6 = DATE_TIME_ROLE( 'classification_date' );
#7 = PERSON_AND_ORGANIZATION_ROLE( 'creator' );
#8 = PERSON_AND_ORGANIZATION_ROLE( 'design_supplier' );
#9 = PERSON_AND_ORGANIZATION_ROLE( 'classification_officer' );
#10 = PERSON_AND_ORGANIZATION_ROLE( 'design_owner' );
#11 = APPROVAL_PERSON_ORGANIZATION( #32, #33, #34 );
#12 = APPROVAL_DATE_TIME( #4, #33 );
#13 = CC_DESIGN_APPROVAL( #33, ( #35, #36, #37 ) );
#14 = CC_DESIGN_DATE_AND_TIME_ASSIGNMENT( #4, #5, ( #37 ) );
#15 = CC_DESIGN_DATE_AND_TIME_ASSIGNMENT( #4, #6, ( #35 ) );
#16 = CC_DESIGN_PERSON_AND_ORGANIZATION_ASSIGNMENT( #32, #10, ( #38 ) );
#17 = CC_DESIGN_PERSON_AND_ORGANIZATION_ASSIGNMENT( #32, #7, ( #37 ) );
#18 = CC_DESIGN_PERSON_AND_ORGANIZATION_ASSIGNMENT( #32, #7, ( #36 ) );
#19 = CC_DESIGN_PERSON_AND_ORGANIZATION_ASSIGNMENT( #32, #8, ( #36 ) );
#20 = CC_DESIGN_SECURITY_CLASSIFICATION( #35, ( #36 ) );
#21 = CC_DESIGN_PERSON_AND_ORGANIZATION_ASSIGNMENT( #32, #9, ( #35 ) );
#22 = SHAPE_DEFINITION_REPRESENTATION( #39, #40 );
#23 =  ( GEOMETRIC_REPRESENTATION_CONTEXT( 3 )GLOBAL_UNCERTAINTY_ASSIGNED_CONTEXT( ( #43 ) )GLOBAL_UNIT_ASSIGNED_CONTEXT( ( #45, #46, #47 ) )REPRESENTATION_CONTEXT( 'NONE', 'WORKSPACE' ) );
#27 = APPLICATION_CONTEXT( 'CONFIGURATION CONTROLLED 3D DESIGNS OF MECHANICAL PARTS AND ASSEMBLIES' );
#28 = PRODUCT_CATEGORY( 'part', 'NONE' );
#29 = PRODUCT_RELATED_PRODUCT_CATEGORY( 'detail', ' ', ( #38 ) );
#30 = CALENDAR_DATE( 2004, 23, 8 );
#31 = LOCAL_TIME( 11, 19, 52.0000000000000, #49 );
#32 = PERSON_AND_ORGANIZATION( #50, #51 );
#33 = APPROVAL( #52, 'SOLID MODEL' );
#34 = APPROVAL_ROLE( 'APPROVED' );
#35 = SECURITY_CLASSIFICATION( '', '', #53 );
#36 = PRODUCT_DEFINITION_FORMATION_WITH_SPECIFIED_SOURCE( ' ', 'NONE', #38, .NOT_KNOWN. );
#37 = PRODUCT_DEFINITION( 'NONE', 'NONE', #36, #1 );
#38 = PRODUCT( '1', '1', 'PART-1-DESC', ( #54 ) );
#39 = PRODUCT_DEFINITION_SHAPE( 'NONE', 'NONE', #37 );
#40 = ADVANCED_BREP_SHAPE_REPRESENTATION( '1', ( #55, #56 ), #23 );
#43 = UNCERTAINTY_MEASURE_WITH_UNIT( LENGTH_MEASURE( 0.00100000000000000 ), #45, '', '' );
#45 =  ( CONVERSION_BASED_UNIT( 'MILLIMETRE', #59 )LENGTH_UNIT(  )NAMED_UNIT( #62 ) );
#46 =  ( CONVERSION_BASED_UNIT( 'RADIAN', #64 )NAMED_UNIT( #66 )PLANE_ANGLE_UNIT(  ) );
#47 =  ( NAMED_UNIT( #66 )SOLID_ANGLE_UNIT(  )SI_UNIT( $, .STERADIAN. ) );
#49 = COORDINATED_UNIVERSAL_TIME_OFFSET( 1, 0, .AHEAD. );
#50 = PERSON( '', 'UNSPECIFIED', $, $, $, $ );
#51 = ORGANIZATION( 'UNSPECIFIED', 'UNSPECIFIED', 'UNSPECIFIED' );
#52 = APPROVAL_STATUS( 'approved' );
#53 = SECURITY_CLASSIFICATION_LEVEL( 'unclassified' );
#54 = MECHANICAL_CONTEXT( '', #27, 'mechanical' );
#55 = MANIFOLD_SOLID_BREP( '1', #71 );
#56 = AXIS2_PLACEMENT_3D( '', #72, #73, #74 );
#59 = LENGTH_MEASURE_WITH_UNIT( LENGTH_MEASURE( 1.00000000000000 ), #75 );
#62 = DIMENSIONAL_EXPONENTS( 1.00000000000000, 0.000000000000000, 0.000000000000000, 0.000000000000000, 0.000000000000000, 0.000000000000000, 0.000000000000000 );
#64 = PLANE_ANGLE_MEASURE_WITH_UNIT( PLANE_ANGLE_MEASURE( 1.00000000000000 ), #76 );
#66 = DIMENSIONAL_EXPONENTS( 0.000000000000000, 0.000000000000000, 0.000000000000000, 0.000000000000000, 0.000000000000000, 0.000000000000000, 0.000000000000000 );
#71 = CLOSED_SHELL( '', ( #77, #78, #79, #80, #81, #82, #83, #84, #85, #86, #87, #88, #89, #90, #91, #92, #93, #94, #95, #96 ) );
#72 = CARTESIAN_POINT( '', ( 0.000000000000000, 0.000000000000000, 0.000000000000000 ) );
#73 = DIRECTION( '', ( 0.000000000000000, 0.000000000000000, 1.00000000000000 ) );
#74 = DIRECTION( '', ( 1.00000000000000, 0.000000000000000, 0.000000000000000 ) );
#75 =  ( NAMED_UNIT( #62 )LENGTH_UNIT(  )SI_UNIT( .MILLI., .METRE. ) );
#76 =  ( NAMED_UNIT( #66 )PLANE_ANGLE_UNIT(  )SI_UNIT( $, .RADIAN. ) );
#77 = ADVANCED_FACE( '', ( #99, #100 ), #101, .T. );
#78 = ADVANCED_FACE( '', ( #102, #103 ), #104, .T. );
#79 = ADVANCED_FACE( '', ( #105, #106 ), #107, .F. );
#80 = ADVANCED_FACE( '', ( #108, #109 ), #110, .T. );
#81 = ADVANCED_FACE( '', ( #111, #112 ), #113, .T. );
#82 = ADVANCED_FACE( '', ( #114, #115 ), #116, .T. );
#83 = ADVANCED_FACE( '', ( #117, #118 ), #119, .T. );
#84 = ADVANCED_FACE( '', ( #120, #121 ), #122, .T. );
#85 = ADVANCED_FACE( '', ( #123, #124 ), #125, .T. );
#86 = ADVANCED_FACE( '', ( #126, #127 ), #128, .T. );
#87 = ADVANCED_FACE( '', ( #129, #130 ), #131, .F. );
#88 = ADVANCED_FACE( '', ( #132, #133 ), #134, .F. );
#89 = ADVANCED_FACE( '', ( #135, #136 ), #137, .T. );
#90 = ADVANCED_FACE( '', ( #138, #139 ), #140, .F. );
#91 = ADVANCED_FACE( '', ( #141, #142 ), #143, .F. );
#92 = ADVANCED_FACE( '', ( #144, #145 ), #146, .T. );
#93 = ADVANCED_FACE( '', ( #147, #148 ), #149, .F. );
#94 = ADVANCED_FACE( '', ( #150, #151 ), #152, .T. );
#95 = ADVANCED_FACE( '', ( #153, #154 ), #155, .F. );
#96 = ADVANCED_FACE( '', ( #156, #157 ), #158, .T. );
#99 = FACE_BOUND( '', #159, .T. );
#100 = FACE_OUTER_BOUND( '', #160, .T. );
#101 = PLANE( '', #161 );
#102 = FACE_OUTER_BOUND( '', #162, .T. );
#103 = FACE_BOUND( '', #163, .T. );
#104 = PLANE( '', #164 );
#105 = FACE_OUTER_BOUND( '', #165, .T. );
#106 = FACE_OUTER_BOUND( '', #166, .T. );
#107 = TOROIDAL_SURFACE( '', #167, 12.9995000000000, 0.500000000000000 );
#108 = FACE_OUTER_BOUND( '', #168, .T. );
#109 = FACE_OUTER_BOUND( '', #169, .T. );
#110 = CYLINDRICAL_SURFACE( '', #170, 12.9995000000000 );
#111 = FACE_OUTER_BOUND( '', #171, .T. );
#112 = FACE_BOUND( '', #172, .T. );
#113 = PLANE( '', #173 );
#114 = FACE_BOUND( '', #174, .T. );
#115 = FACE_OUTER_BOUND( '', #175, .T. );
#116 = PLANE( '', #176 );
#117 = FACE_OUTER_BOUND( '', #177, .T. );
#118 = FACE_OUTER_BOUND( '', #178, .T. );
#119 = CYLINDRICAL_SURFACE( '', #179, 15.0000000000000 );
#120 = FACE_OUTER_BOUND( '', #180, .T. );
#121 = FACE_OUTER_BOUND( '', #181, .T. );
#122 = CYLINDRICAL_SURFACE( '', #182, 12.9995000000000 );
#123 = FACE_OUTER_BOUND( '', #183, .T. );
#124 = FACE_OUTER_BOUND( '', #184, .T. );
#125 = CYLINDRICAL_SURFACE( '', #185, 13.0000000000000 );
#126 = FACE_BOUND( '', #186, .T. );
#127 = FACE_OUTER_BOUND( '', #187, .T. );
#128 = PLANE( '', #188 );
#129 = FACE_OUTER_BOUND( '', #189, .T. );
#130 = FACE_OUTER_BOUND( '', #190, .T. );
#131 = TOROIDAL_SURFACE( '', #191, 13.0000000000000, 0.499999999999999 );
#132 = FACE_OUTER_BOUND( '', #192, .T. );
#133 = FACE_OUTER_BOUND( '', #193, .T. );
#134 = CYLINDRICAL_SURFACE( '', #194, 9.99950000000000 );
#135 = FACE_OUTER_BOUND( '', #195, .T. );
#136 = FACE_BOUND( '', #196, .T. );
#137 = CONICAL_SURFACE( '', #197, 12.4995000000000, 0.785398163397448 );
#138 = FACE_OUTER_BOUND( '', #198, .T. );
#139 = FACE_BOUND( '', #199, .T. );
#140 = PLANE( '', #200 );
#141 = FACE_OUTER_BOUND( '', #201, .T. );
#142 = FACE_OUTER_BOUND( '', #202, .T. );
#143 = CYLINDRICAL_SURFACE( '', #203, 10.0000000000000 );
#144 = FACE_OUTER_BOUND( '', #204, .T. );
#145 = FACE_BOUND( '', #205, .T. );
#146 = CONICAL_SURFACE( '', #206, 14.5000000000000, 0.785398163397448 );
#147 = FACE_OUTER_BOUND( '', #207, .T. );
#148 = FACE_BOUND( '', #208, .T. );
#149 = CONICAL_SURFACE( '', #209, 9.99950000000000, 0.785398163397505 );
#150 = FACE_BOUND( '', #210, .T. );
#151 = FACE_OUTER_BOUND( '', #211, .T. );
#152 = CONICAL_SURFACE( '', #212, 15.0000000000000, 0.785398163397448 );
#153 = FACE_BOUND( '', #213, .T. );
#154 = FACE_OUTER_BOUND( '', #214, .T. );
#155 = CONICAL_SURFACE( '', #215, 10.2000000000000, 0.785398163397435 );
#156 = FACE_BOUND( '', #216, .T. );
#157 = FACE_OUTER_BOUND( '', #217, .T. );
#158 = CONICAL_SURFACE( '', #218, 12.9995000000000, 0.785398163397448 );
#159 = EDGE_LOOP( '', ( #219 ) );
#160 = EDGE_LOOP( '', ( #220 ) );
#161 = AXIS2_PLACEMENT_3D( '', #221, #222, #223 );
#162 = EDGE_LOOP( '', ( #224 ) );
#163 = EDGE_LOOP( '', ( #225 ) );
#164 = AXIS2_PLACEMENT_3D( '', #226, #227, #228 );
#165 = EDGE_LOOP( '', ( #229 ) );
#166 = EDGE_LOOP( '', ( #230 ) );
#167 = AXIS2_PLACEMENT_3D( '', #231, #232, #233 );
#168 = EDGE_LOOP( '', ( #234 ) );
#169 = EDGE_LOOP( '', ( #235 ) );
#170 = AXIS2_PLACEMENT_3D( '', #236, #237, #238 );
#171 = EDGE_LOOP( '', ( #239 ) );
#172 = EDGE_LOOP( '', ( #240 ) );
#173 = AXIS2_PLACEMENT_3D( '', #241, #242, #243 );
#174 = EDGE_LOOP( '', ( #244 ) );
#175 = EDGE_LOOP( '', ( #245 ) );
#176 = AXIS2_PLACEMENT_3D( '', #246, #247, #248 );
#177 = EDGE_LOOP( '', ( #249 ) );
#178 = EDGE_LOOP( '', ( #250 ) );
#179 = AXIS2_PLACEMENT_3D( '', #251, #252, #253 );
#180 = EDGE_LOOP( '', ( #254 ) );
#181 = EDGE_LOOP( '', ( #255 ) );
#182 = AXIS2_PLACEMENT_3D( '', #256, #257, #258 );
#183 = EDGE_LOOP( '', ( #259 ) );
#184 = EDGE_LOOP( '', ( #260 ) );
#185 = AXIS2_PLACEMENT_3D( '', #261, #262, #263 );
#186 = EDGE_LOOP( '', ( #264 ) );
#187 = EDGE_LOOP( '', ( #265 ) );
#188 = AXIS2_PLACEMENT_3D( '', #266, #267, #268 );
#189 = EDGE_LOOP( '', ( #269 ) );
#190 = EDGE_LOOP( '', ( #270 ) );
#191 = AXIS2_PLACEMENT_3D( '', #271, #272, #273 );
#192 = EDGE_LOOP( '', ( #274 ) );
#193 = EDGE_LOOP( '', ( #275 ) );
#194 = AXIS2_PLACEMENT_3D( '', #276, #277, #278 );
#195 = EDGE_LOOP( '', ( #279 ) );
#196 = EDGE_LOOP( '', ( #280 ) );
#197 = AXIS2_PLACEMENT_3D( '', #281, #282, #283 );
#198 = EDGE_LOOP( '', ( #284 ) );
#199 = EDGE_LOOP( '', ( #285 ) );
#200 = AXIS2_PLACEMENT_3D( '', #286, #287, #288 );
#201 = EDGE_LOOP( '', ( #289 ) );
#202 = EDGE_LOOP( '', ( #290 ) );
#203 = AXIS2_PLACEMENT_3D( '', #291, #292, #293 );
#204 = EDGE_LOOP( '', ( #294 ) );
#205 = EDGE_LOOP( '', ( #295 ) );
#206 = AXIS2_PLACEMENT_3D( '', #296, #297, #298 );
#207 = EDGE_LOOP( '', ( #299 ) );
#208 = EDGE_LOOP( '', ( #300 ) );
#209 = AXIS2_PLACEMENT_3D( '', #301, #302, #303 );
#210 = EDGE_LOOP( '', ( #304 ) );
#211 = EDGE_LOOP( '', ( #305 ) );
#212 = AXIS2_PLACEMENT_3D( '', #306, #307, #308 );
#213 = EDGE_LOOP( '', ( #309 ) );
#214 = EDGE_LOOP( '', ( #310 ) );
#215 = AXIS2_PLACEMENT_3D( '', #311, #312, #313 );
#216 = EDGE_LOOP( '', ( #314 ) );
#217 = EDGE_LOOP( '', ( #315 ) );
#218 = AXIS2_PLACEMENT_3D( '', #316, #317, #318 );
#219 = ORIENTED_EDGE( '', *, *, #319, .T. );
#220 = ORIENTED_EDGE( '', *, *, #320, .T. );
#221 = CARTESIAN_POINT( '', ( -1.83690953073356E-016, 0.000000000000000, 12.9995000000000 ) );
#222 = DIRECTION( '', ( -1.00000000000000, 0.000000000000000, 0.000000000000000 ) );
#223 = DIRECTION( '', ( 0.000000000000000, 0.000000000000000, 1.00000000000000 ) );
#224 = ORIENTED_EDGE( '', *, *, #321, .T. );
#225 = ORIENTED_EDGE( '', *, *, #322, .T. );
#226 = CARTESIAN_POINT( '', ( 15.0000000000000, 0.000000000000000, 15.0000000000000 ) );
#227 = DIRECTION( '', ( 1.00000000000000, 0.000000000000000, 0.000000000000000 ) );
#228 = DIRECTION( '', ( 0.000000000000000, 0.000000000000000, -1.00000000000000 ) );
#229 = ORIENTED_EDGE( '', *, *, #323, .T. );
#230 = ORIENTED_EDGE( '', *, *, #324, .T. );
#231 = CARTESIAN_POINT( '', ( 8.50000000000001, 0.000000000000000, 6.93889390390723E-015 ) );
#232 = DIRECTION( '', ( -1.00000000000000, 0.000000000000000, 2.98353444545281E-018 ) );
#233 = DIRECTION( '', ( 2.98353444545281E-018, 0.000000000000000, 1.00000000000000 ) );
#234 = ORIENTED_EDGE( '', *, *, #325, .T. );
#235 = ORIENTED_EDGE( '', *, *, #323, .F. );
#236 = CARTESIAN_POINT( '', ( 280.000000000000, 0.000000000000000, 7.34763812293426E-015 ) );
#237 = DIRECTION( '', ( 1.00000000000000, 0.000000000000000, 0.000000000000000 ) );
#238 = DIRECTION( '', ( 0.000000000000000, 0.000000000000000, 1.00000000000000 ) );
#239 = ORIENTED_EDGE( '', *, *, #326, .T. );
#240 = ORIENTED_EDGE( '', *, *, #324, .F. );
#241 = CARTESIAN_POINT( '', ( 9.00000000000000, 0.000000000000000, 12.9995000000000 ) );
#242 = DIRECTION( '', ( -1.00000000000000, 0.000000000000000, 0.000000000000000 ) );
#243 = DIRECTION( '', ( 0.000000000000000, 0.000000000000000, 1.00000000000000 ) );
#244 = ORIENTED_EDGE( '', *, *, #327, .T. );
#245 = ORIENTED_EDGE( '', *, *, #328, .T. );
#246 = CARTESIAN_POINT( '', ( 124.000000000000, 0.000000000000000, 12.9995000000000 ) );
#247 = DIRECTION( '', ( 1.00000000000000, 0.000000000000000, 0.000000000000000 ) );
#248 = DIRECTION( '', ( 0.000000000000000, 0.000000000000000, -1.00000000000000 ) );
#249 = ORIENTED_EDGE( '', *, *, #329, .T. );
#250 = ORIENTED_EDGE( '', *, *, #330, .T. );
#251 = CARTESIAN_POINT( '', ( 280.000000000000, 0.000000000000000, 7.34763812293426E-015 ) );
#252 = DIRECTION( '', ( 1.00000000000000, 0.000000000000000, 0.000000000000000 ) );
#253 = DIRECTION( '', ( 0.000000000000000, 0.000000000000000, 1.00000000000000 ) );
#254 = ORIENTED_EDGE( '', *, *, #331, .T. );
#255 = ORIENTED_EDGE( '', *, *, #332, .F. );
#256 = CARTESIAN_POINT( '', ( 280.000000000000, 0.000000000000000, 7.34763812293426E-015 ) );
#257 = DIRECTION( '', ( 1.00000000000000, 0.000000000000000, 0.000000000000000 ) );
#258 = DIRECTION( '', ( 0.000000000000000, 0.000000000000000, 1.00000000000000 ) );
#259 = ORIENTED_EDGE( '', *, *, #333, .F. );
#260 = ORIENTED_EDGE( '', *, *, #334, .T. );
#261 = CARTESIAN_POINT( '', ( 280.000000000000, 0.000000000000000, 7.34763812293426E-015 ) );
#262 = DIRECTION( '', ( 1.00000000000000, 0.000000000000000, 0.000000000000000 ) );
#263 = DIRECTION( '', ( 0.000000000000000, 0.000000000000000, 1.00000000000000 ) );
#264 = ORIENTED_EDGE( '', *, *, #332, .T. );
#265 = ORIENTED_EDGE( '', *, *, #334, .F. );
#266 = CARTESIAN_POINT( '', ( 120.000000000000, 0.000000000000000, 13.0000000000000 ) );
#267 = DIRECTION( '', ( 1.00000000000000, 0.000000000000000, 0.000000000000000 ) );
#268 = DIRECTION( '', ( 0.000000000000000, 0.000000000000000, -1.00000000000000 ) );
#269 = ORIENTED_EDGE( '', *, *, #322, .F. );
#270 = ORIENTED_EDGE( '', *, *, #333, .T. );
#271 = CARTESIAN_POINT( '', ( 15.5000000000000, 0.000000000000000, 6.93889390390723E-015 ) );
#272 = DIRECTION( '', ( -1.00000000000000, 0.000000000000000, 2.98353444545281E-018 ) );
#273 = DIRECTION( '', ( 2.98353444545281E-018, 0.000000000000000, 1.00000000000000 ) );
#274 = ORIENTED_EDGE( '', *, *, #335, .T. );
#275 = ORIENTED_EDGE( '', *, *, #336, .F. );
#276 = CARTESIAN_POINT( '', ( 280.000000000000, 0.000000000000000, 7.34763812293426E-015 ) );
#277 = DIRECTION( '', ( 1.00000000000000, 0.000000000000000, 0.000000000000000 ) );
#278 = DIRECTION( '', ( 0.000000000000000, 0.000000000000000, 1.00000000000000 ) );
#279 = ORIENTED_EDGE( '', *, *, #325, .F. );
#280 = ORIENTED_EDGE( '', *, *, #320, .F. );
#281 = CARTESIAN_POINT( '', ( 0.000000000000000, 0.000000000000000, 7.34763812293426E-015 ) );
#282 = DIRECTION( '', ( 1.00000000000000, 0.000000000000000, 0.000000000000000 ) );
#283 = DIRECTION( '', ( 0.000000000000000, 0.000000000000000, -1.00000000000000 ) );
#284 = ORIENTED_EDGE( '', *, *, #337, .F. );
#285 = ORIENTED_EDGE( '', *, *, #336, .T. );
#286 = CARTESIAN_POINT( '', ( 49.0000000000000, 0.000000000000000, 9.99950000000001 ) );
#287 = DIRECTION( '', ( -1.00000000000000, 0.000000000000000, 0.000000000000000 ) );
#288 = DIRECTION( '', ( 0.000000000000000, 0.000000000000000, 1.00000000000000 ) );
#289 = ORIENTED_EDGE( '', *, *, #338, .T. );
#290 = ORIENTED_EDGE( '', *, *, #337, .T. );
#291 = CARTESIAN_POINT( '', ( 280.000000000000, 0.000000000000000, 7.34763812293426E-015 ) );
#292 = DIRECTION( '', ( 1.00000000000000, 0.000000000000000, 0.000000000000000 ) );
#293 = DIRECTION( '', ( 0.000000000000000, 0.000000000000000, 1.00000000000000 ) );
#294 = ORIENTED_EDGE( '', *, *, #330, .F. );
#295 = ORIENTED_EDGE( '', *, *, #326, .F. );
#296 = CARTESIAN_POINT( '', ( 9.00000000000001, 0.000000000000000, 7.34763812293426E-015 ) );
#297 = DIRECTION( '', ( 1.00000000000000, 0.000000000000000, 0.000000000000000 ) );
#298 = DIRECTION( '', ( 0.000000000000000, 0.000000000000000, -1.00000000000000 ) );
#299 = ORIENTED_EDGE( '', *, *, #319, .F. );
#300 = ORIENTED_EDGE( '', *, *, #335, .F. );
#301 = CARTESIAN_POINT( '', ( 0.199999999999978, 0.000000000000000, 7.34763812293426E-015 ) );
#302 = DIRECTION( '', ( -1.00000000000000, 0.000000000000000, 0.000000000000000 ) );
#303 = DIRECTION( '', ( 0.000000000000000, 0.000000000000000, 1.00000000000000 ) );
#304 = ORIENTED_EDGE( '', *, *, #321, .F. );
#305 = ORIENTED_EDGE( '', *, *, #329, .F. );
#306 = CARTESIAN_POINT( '', ( 14.5000000000000, 0.000000000000000, 7.34763812293426E-015 ) );
#307 = DIRECTION( '', ( -1.00000000000000, 0.000000000000000, 0.000000000000000 ) );
#308 = DIRECTION( '', ( 0.000000000000000, 0.000000000000000, 1.00000000000000 ) );
#309 = ORIENTED_EDGE( '', *, *, #338, .F. );
#310 = ORIENTED_EDGE( '', *, *, #327, .F. );
#311 = CARTESIAN_POINT( '', ( 124.000000000000, 0.000000000000000, 7.34763812293426E-015 ) );
#312 = DIRECTION( '', ( 1.00000000000000, 0.000000000000000, 0.000000000000000 ) );
#313 = DIRECTION( '', ( 0.000000000000000, 0.000000000000000, -1.00000000000000 ) );
#314 = ORIENTED_EDGE( '', *, *, #328, .F. );
#315 = ORIENTED_EDGE( '', *, *, #331, .F. );
#316 = CARTESIAN_POINT( '', ( 123.500000000000, 0.000000000000000, 7.34763812293426E-015 ) );
#317 = DIRECTION( '', ( -1.00000000000000, 0.000000000000000, 0.000000000000000 ) );
#318 = DIRECTION( '', ( 0.000000000000000, 0.000000000000000, 1.00000000000000 ) );
#319 = EDGE_CURVE( '', #339, #339, #340, .F. );
#320 = EDGE_CURVE( '', #341, #341, #342, .T. );
#321 = EDGE_CURVE( '', #343, #343, #344, .T. );
#322 = EDGE_CURVE( '', #345, #345, #346, .T. );
#323 = EDGE_CURVE( '', #347, #347, #348, .T. );
#324 = EDGE_CURVE( '', #349, #349, #350, .T. );
#325 = EDGE_CURVE( '', #351, #351, #352, .F. );
#326 = EDGE_CURVE( '', #353, #353, #354, .T. );
#327 = EDGE_CURVE( '', #355, #355, #356, .F. );
#328 = EDGE_CURVE( '', #357, #357, #358, .T. );
#329 = EDGE_CURVE( '', #359, #359, #360, .F. );
#330 = EDGE_CURVE( '', #361, #361, #362, .F. );
#331 = EDGE_CURVE( '', #363, #363, #364, .F. );
#332 = EDGE_CURVE( '', #365, #365, #366, .T. );
#333 = EDGE_CURVE( '', #367, #367, #368, .T. );
#334 = EDGE_CURVE( '', #369, #369, #370, .T. );
#335 = EDGE_CURVE( '', #371, #371, #372, .T. );
#336 = EDGE_CURVE( '', #373, #373, #374, .T. );
#337 = EDGE_CURVE( '', #375, #375, #376, .T. );
#338 = EDGE_CURVE( '', #377, #377, #378, .T. );
#339 = VERTEX_POINT( '', #379 );
#340 = CIRCLE( '', #380, 10.1995000000000 );
#341 = VERTEX_POINT( '', #381 );
#342 = CIRCLE( '', #382, 12.4995000000000 );
#343 = VERTEX_POINT( '', #383 );
#344 = CIRCLE( '', #384, 14.5000000000000 );
#345 = VERTEX_POINT( '', #385 );
#346 = CIRCLE( '', #386, 13.0000000000000 );
#347 = VERTEX_POINT( '', #387 );
#348 = CIRCLE( '', #388, 12.9995000000000 );
#349 = VERTEX_POINT( '', #389 );
#350 = CIRCLE( '', #390, 12.9995000000000 );
#351 = VERTEX_POINT( '', #391 );
#352 = CIRCLE( '', #392, 12.9995000000000 );
#353 = VERTEX_POINT( '', #393 );
#354 = CIRCLE( '', #394, 14.5000000000000 );
#355 = VERTEX_POINT( '', #395 );
#356 = CIRCLE( '', #396, 10.2000000000000 );
#357 = VERTEX_POINT( '', #397 );
#358 = CIRCLE( '', #398, 12.4995000000000 );
#359 = VERTEX_POINT( '', #399 );
#360 = CIRCLE( '', #400, 15.0000000000000 );
#361 = VERTEX_POINT( '', #401 );
#362 = CIRCLE( '', #402, 15.0000000000000 );
#363 = VERTEX_POINT( '', #403 );
#364 = CIRCLE( '', #404, 12.9995000000000 );
#365 = VERTEX_POINT( '', #405 );
#366 = CIRCLE( '', #406, 12.9995000000000 );
#367 = VERTEX_POINT( '', #407 );
#368 = CIRCLE( '', #408, 13.0000000000000 );
#369 = VERTEX_POINT( '', #409 );
#370 = CIRCLE( '', #410, 13.0000000000000 );
#371 = VERTEX_POINT( '', #411 );
#372 = CIRCLE( '', #412, 9.99950000000000 );
#373 = VERTEX_POINT( '', #413 );
#374 = CIRCLE( '', #414, 9.99950000000000 );
#375 = VERTEX_POINT( '', #415 );
#376 = CIRCLE( '', #416, 10.0000000000000 );
#377 = VERTEX_POINT( '', #417 );
#378 = CIRCLE( '', #418, 10.0000000000000 );
#379 = CARTESIAN_POINT( '', ( -1.83690953073356E-016, 0.000000000000000, 10.1995000000000 ) );
#380 = AXIS2_PLACEMENT_3D( '', #419, #420, #421 );
#381 = CARTESIAN_POINT( '', ( -1.83690953073356E-016, 0.000000000000000, 12.4995000000000 ) );
#382 = AXIS2_PLACEMENT_3D( '', #422, #423, #424 );
#383 = CARTESIAN_POINT( '', ( 15.0000000000000, 0.000000000000000, -14.5000000000000 ) );
#384 = AXIS2_PLACEMENT_3D( '', #425, #426, #427 );
#385 = CARTESIAN_POINT( '', ( 15.0000000000000, 0.000000000000000, 13.0000000000000 ) );
#386 = AXIS2_PLACEMENT_3D( '', #428, #429, #430 );
#387 = CARTESIAN_POINT( '', ( 8.00000000000001, 0.000000000000000, -12.9995000000000 ) );
#388 = AXIS2_PLACEMENT_3D( '', #431, #432, #433 );
#389 = CARTESIAN_POINT( '', ( 9.00000000000001, 0.000000000000000, 12.9995000000000 ) );
#390 = AXIS2_PLACEMENT_3D( '', #434, #435, #436 );
#391 = CARTESIAN_POINT( '', ( 0.500000000000000, 0.000000000000000, 12.9995000000000 ) );
#392 = AXIS2_PLACEMENT_3D( '', #437, #438, #439 );
#393 = CARTESIAN_POINT( '', ( 9.00000000000000, 0.000000000000000, 14.5000000000000 ) );
#394 = AXIS2_PLACEMENT_3D( '', #440, #441, #442 );
#395 = CARTESIAN_POINT( '', ( 124.000000000000, 0.000000000000000, -10.2000000000000 ) );
#396 = AXIS2_PLACEMENT_3D( '', #443, #444, #445 );
#397 = CARTESIAN_POINT( '', ( 124.000000000000, 0.000000000000000, -12.4995000000000 ) );
#398 = AXIS2_PLACEMENT_3D( '', #446, #447, #448 );
#399 = CARTESIAN_POINT( '', ( 14.5000000000000, 0.000000000000000, -15.0000000000000 ) );
#400 = AXIS2_PLACEMENT_3D( '', #449, #450, #451 );
#401 = CARTESIAN_POINT( '', ( 9.50000000000001, 0.000000000000000, 15.0000000000000 ) );
#402 = AXIS2_PLACEMENT_3D( '', #452, #453, #454 );
#403 = CARTESIAN_POINT( '', ( 123.500000000000, 0.000000000000000, -12.9995000000000 ) );
#404 = AXIS2_PLACEMENT_3D( '', #455, #456, #457 );
#405 = CARTESIAN_POINT( '', ( 120.000000000000, 0.000000000000000, 12.9995000000000 ) );
#406 = AXIS2_PLACEMENT_3D( '', #458, #459, #460 );
#407 = CARTESIAN_POINT( '', ( 16.0000000000000, 0.000000000000000, 13.0000000000000 ) );
#408 = AXIS2_PLACEMENT_3D( '', #461, #462, #463 );
#409 = CARTESIAN_POINT( '', ( 120.000000000000, 0.000000000000000, 13.0000000000000 ) );
#410 = AXIS2_PLACEMENT_3D( '', #464, #465, #466 );
#411 = CARTESIAN_POINT( '', ( 0.199999999999978, 0.000000000000000, 9.99950000000001 ) );
#412 = AXIS2_PLACEMENT_3D( '', #467, #468, #469 );
#413 = CARTESIAN_POINT( '', ( 49.0000000000000, 0.000000000000000, 9.99950000000001 ) );
#414 = AXIS2_PLACEMENT_3D( '', #470, #471, #472 );
#415 = CARTESIAN_POINT( '', ( 49.0000000000000, 0.000000000000000, 10.0000000000000 ) );
#416 = AXIS2_PLACEMENT_3D( '', #473, #474, #475 );
#417 = CARTESIAN_POINT( '', ( 123.800000000000, 0.000000000000000, -9.99999999999999 ) );
#418 = AXIS2_PLACEMENT_3D( '', #476, #477, #478 );
#419 = CARTESIAN_POINT( '', ( -1.83690953073356E-016, 0.000000000000000, 7.34763812293426E-015 ) );
#420 = DIRECTION( '', ( -1.00000000000000, 0.000000000000000, 0.000000000000000 ) );
#421 = DIRECTION( '', ( 0.000000000000000, 0.000000000000000, 1.00000000000000 ) );
#422 = CARTESIAN_POINT( '', ( -1.83690953073356E-016, 0.000000000000000, 7.34763812293426E-015 ) );
#423 = DIRECTION( '', ( -1.00000000000000, 0.000000000000000, 0.000000000000000 ) );
#424 = DIRECTION( '', ( 0.000000000000000, 0.000000000000000, 1.00000000000000 ) );
#425 = CARTESIAN_POINT( '', ( 15.0000000000000, 0.000000000000000, 7.34763812293426E-015 ) );
#426 = DIRECTION( '', ( 1.00000000000000, 0.000000000000000, 0.000000000000000 ) );
#427 = DIRECTION( '', ( 0.000000000000000, 0.000000000000000, -1.00000000000000 ) );
#428 = CARTESIAN_POINT( '', ( 15.0000000000000, 0.000000000000000, 7.34763812293426E-015 ) );
#429 = DIRECTION( '', ( -1.00000000000000, 0.000000000000000, 0.000000000000000 ) );
#430 = DIRECTION( '', ( 0.000000000000000, 0.000000000000000, 1.00000000000000 ) );
#431 = CARTESIAN_POINT( '', ( 8.00000000000001, 0.000000000000000, 6.94038567112995E-015 ) );
#432 = DIRECTION( '', ( 1.00000000000000, 0.000000000000000, -2.98353444545281E-018 ) );
#433 = DIRECTION( '', ( -2.98353444545281E-018, 0.000000000000000, -1.00000000000000 ) );
#434 = CARTESIAN_POINT( '', ( 9.00000000000001, 0.000000000000000, 7.34763812293426E-015 ) );
#435 = DIRECTION( '', ( -1.00000000000000, 0.000000000000000, 0.000000000000000 ) );
#436 = DIRECTION( '', ( 0.000000000000000, 0.000000000000000, 1.00000000000000 ) );
#437 = CARTESIAN_POINT( '', ( 0.500000000000000, 0.000000000000000, 7.34763812293426E-015 ) );
#438 = DIRECTION( '', ( -1.00000000000000, 0.000000000000000, 0.000000000000000 ) );
#439 = DIRECTION( '', ( 0.000000000000000, 0.000000000000000, 1.00000000000000 ) );
#440 = CARTESIAN_POINT( '', ( 9.00000000000000, 0.000000000000000, 7.34763812293426E-015 ) );
#441 = DIRECTION( '', ( -1.00000000000000, 0.000000000000000, 0.000000000000000 ) );
#442 = DIRECTION( '', ( 0.000000000000000, 0.000000000000000, 1.00000000000000 ) );
#443 = CARTESIAN_POINT( '', ( 124.000000000000, 0.000000000000000, 7.34763812293426E-015 ) );
#444 = DIRECTION( '', ( 1.00000000000000, 0.000000000000000, 0.000000000000000 ) );
#445 = DIRECTION( '', ( 0.000000000000000, 0.000000000000000, -1.00000000000000 ) );
#446 = CARTESIAN_POINT( '', ( 124.000000000000, 0.000000000000000, 7.34763812293426E-015 ) );
#447 = DIRECTION( '', ( 1.00000000000000, 0.000000000000000, 0.000000000000000 ) );
#448 = DIRECTION( '', ( 0.000000000000000, 0.000000000000000, -1.00000000000000 ) );
#449 = CARTESIAN_POINT( '', ( 14.5000000000000, 0.000000000000000, 7.34763812293426E-015 ) );
#450 = DIRECTION( '', ( 1.00000000000000, 0.000000000000000, 0.000000000000000 ) );
#451 = DIRECTION( '', ( 0.000000000000000, 0.000000000000000, -1.00000000000000 ) );
#452 = CARTESIAN_POINT( '', ( 9.50000000000001, 0.000000000000000, 7.34763812293426E-015 ) );
#453 = DIRECTION( '', ( -1.00000000000000, 0.000000000000000, 0.000000000000000 ) );
#454 = DIRECTION( '', ( 0.000000000000000, 0.000000000000000, 1.00000000000000 ) );
#455 = CARTESIAN_POINT( '', ( 123.500000000000, 0.000000000000000, 7.34763812293426E-015 ) );
#456 = DIRECTION( '', ( 1.00000000000000, 0.000000000000000, 0.000000000000000 ) );
#457 = DIRECTION( '', ( 0.000000000000000, 0.000000000000000, -1.00000000000000 ) );
#458 = CARTESIAN_POINT( '', ( 120.000000000000, 0.000000000000000, 7.34763812293426E-015 ) );
#459 = DIRECTION( '', ( -1.00000000000000, 0.000000000000000, 0.000000000000000 ) );
#460 = DIRECTION( '', ( 0.000000000000000, 0.000000000000000, 1.00000000000000 ) );
#461 = CARTESIAN_POINT( '', ( 16.0000000000000, 0.000000000000000, 6.93740213668450E-015 ) );
#462 = DIRECTION( '', ( -1.00000000000000, 0.000000000000000, 2.98353444545281E-018 ) );
#463 = DIRECTION( '', ( 2.98353444545281E-018, 0.000000000000000, 1.00000000000000 ) );
#464 = CARTESIAN_POINT( '', ( 120.000000000000, 0.000000000000000, 7.34763812293426E-015 ) );
#465 = DIRECTION( '', ( -1.00000000000000, 0.000000000000000, 0.000000000000000 ) );
#466 = DIRECTION( '', ( 0.000000000000000, 0.000000000000000, 1.00000000000000 ) );
#467 = CARTESIAN_POINT( '', ( 0.199999999999978, 0.000000000000000, 7.34763812293426E-015 ) );
#468 = DIRECTION( '', ( -1.00000000000000, 0.000000000000000, 0.000000000000000 ) );
#469 = DIRECTION( '', ( 0.000000000000000, 0.000000000000000, 1.00000000000000 ) );
#470 = CARTESIAN_POINT( '', ( 49.0000000000000, 0.000000000000000, 7.34763812293426E-015 ) );
#471 = DIRECTION( '', ( -1.00000000000000, 0.000000000000000, 0.000000000000000 ) );
#472 = DIRECTION( '', ( 0.000000000000000, 0.000000000000000, 1.00000000000000 ) );
#473 = CARTESIAN_POINT( '', ( 49.0000000000000, 0.000000000000000, 7.34763812293426E-015 ) );
#474 = DIRECTION( '', ( -1.00000000000000, 0.000000000000000, 0.000000000000000 ) );
#475 = DIRECTION( '', ( 0.000000000000000, 0.000000000000000, 1.00000000000000 ) );
#476 = CARTESIAN_POINT( '', ( 123.800000000000, 0.000000000000000, 7.34763812293426E-015 ) );
#477 = DIRECTION( '', ( 1.00000000000000, 0.000000000000000, 0.000000000000000 ) );
#478 = DIRECTION( '', ( 0.000000000000000, 0.000000000000000, -1.00000000000000 ) );
ENDSEC;
END-ISO-10303-21;
