ISO-10303-21;
HEADER;
FILE_DESCRIPTION( ( 'Unknown' ), '1' );
FILE_NAME( 'C:/Documents and Settings/BEATRIZ/Escritorio/ORYMO/COMPONENTES/CASQUILLOS/CASQUILLOS CV2S/CV2S_20x16/CV2S_20x16.stp', 'Unknown', ( 'Unknown' ), ( 'Unknown' ), 'XStep 1.0', 'Unknown', ' ' );
FILE_SCHEMA( ( 'CONFIG_CONTROL_DESIGN' ) );
ENDSEC;
DATA;
#1 = DESIGN_CONTEXT( '', #27, 'design' );
#2 = APPLICATION_PROTOCOL_DEFINITION( 'INTERNATIONAL STANDARD', 'config_control_design', 1994, #27 );
#3 = PRODUCT_CATEGORY_RELATIONSHIP( 'NONE', 'NONE', #28, #29 );
#4 = DATE_AND_TIME( #30, #31 );
#5 = DATE_TIME_ROLE( 'creation_date' );
#6 = DATE_TIME_ROLE( 'classification_date' );
#7 = PERSON_AND_ORGANIZATION_ROLE( 'creator' );
#8 = PERSON_AND_ORGANIZATION_ROLE( 'design_supplier' );
#9 = PERSON_AND_ORGANIZATION_ROLE( 'classification_officer' );
#10 = PERSON_AND_ORGANIZATION_ROLE( 'design_owner' );
#11 = APPROVAL_PERSON_ORGANIZATION( #32, #33, #34 );
#12 = APPROVAL_DATE_TIME( #4, #33 );
#13 = CC_DESIGN_APPROVAL( #33, ( #35, #36, #37 ) );
#14 = CC_DESIGN_DATE_AND_TIME_ASSIGNMENT( #4, #5, ( #37 ) );
#15 = CC_DESIGN_DATE_AND_TIME_ASSIGNMENT( #4, #6, ( #35 ) );
#16 = CC_DESIGN_PERSON_AND_ORGANIZATION_ASSIGNMENT( #32, #10, ( #38 ) );
#17 = CC_DESIGN_PERSON_AND_ORGANIZATION_ASSIGNMENT( #32, #7, ( #37 ) );
#18 = CC_DESIGN_PERSON_AND_ORGANIZATION_ASSIGNMENT( #32, #7, ( #36 ) );
#19 = CC_DESIGN_PERSON_AND_ORGANIZATION_ASSIGNMENT( #32, #8, ( #36 ) );
#20 = CC_DESIGN_SECURITY_CLASSIFICATION( #35, ( #36 ) );
#21 = CC_DESIGN_PERSON_AND_ORGANIZATION_ASSIGNMENT( #32, #9, ( #35 ) );
#22 = SHAPE_DEFINITION_REPRESENTATION( #39, #40 );
#23 =  ( GEOMETRIC_REPRESENTATION_CONTEXT( 3 )GLOBAL_UNCERTAINTY_ASSIGNED_CONTEXT( ( #43 ) )GLOBAL_UNIT_ASSIGNED_CONTEXT( ( #45, #46, #47 ) )REPRESENTATION_CONTEXT( 'NONE', 'WORKSPACE' ) );
#27 = APPLICATION_CONTEXT( 'CONFIGURATION CONTROLLED 3D DESIGNS OF MECHANICAL PARTS AND ASSEMBLIES' );
#28 = PRODUCT_CATEGORY( 'part', 'NONE' );
#29 = PRODUCT_RELATED_PRODUCT_CATEGORY( 'detail', ' ', ( #38 ) );
#30 = CALENDAR_DATE( 2004, 23, 8 );
#31 = LOCAL_TIME( 11, 20, 23.0000000000000, #49 );
#32 = PERSON_AND_ORGANIZATION( #50, #51 );
#33 = APPROVAL( #52, 'SOLID MODEL' );
#34 = APPROVAL_ROLE( 'APPROVED' );
#35 = SECURITY_CLASSIFICATION( '', '', #53 );
#36 = PRODUCT_DEFINITION_FORMATION_WITH_SPECIFIED_SOURCE( ' ', 'NONE', #38, .NOT_KNOWN. );
#37 = PRODUCT_DEFINITION( 'NONE', 'NONE', #36, #1 );
#38 = PRODUCT( '1', '1', 'PART-1-DESC', ( #54 ) );
#39 = PRODUCT_DEFINITION_SHAPE( 'NONE', 'NONE', #37 );
#40 = ADVANCED_BREP_SHAPE_REPRESENTATION( '1', ( #55, #56 ), #23 );
#43 = UNCERTAINTY_MEASURE_WITH_UNIT( LENGTH_MEASURE( 0.00100000000000000 ), #45, '', '' );
#45 =  ( CONVERSION_BASED_UNIT( 'MILLIMETRE', #59 )LENGTH_UNIT(  )NAMED_UNIT( #62 ) );
#46 =  ( CONVERSION_BASED_UNIT( 'RADIAN', #64 )NAMED_UNIT( #66 )PLANE_ANGLE_UNIT(  ) );
#47 =  ( NAMED_UNIT( #66 )SOLID_ANGLE_UNIT(  )SI_UNIT( $, .STERADIAN. ) );
#49 = COORDINATED_UNIVERSAL_TIME_OFFSET( 1, 0, .AHEAD. );
#50 = PERSON( '', 'UNSPECIFIED', $, $, $, $ );
#51 = ORGANIZATION( 'UNSPECIFIED', 'UNSPECIFIED', 'UNSPECIFIED' );
#52 = APPROVAL_STATUS( 'approved' );
#53 = SECURITY_CLASSIFICATION_LEVEL( 'unclassified' );
#54 = MECHANICAL_CONTEXT( '', #27, 'mechanical' );
#55 = MANIFOLD_SOLID_BREP( '1', #71 );
#56 = AXIS2_PLACEMENT_3D( '', #72, #73, #74 );
#59 = LENGTH_MEASURE_WITH_UNIT( LENGTH_MEASURE( 1.00000000000000 ), #75 );
#62 = DIMENSIONAL_EXPONENTS( 1.00000000000000, 0.000000000000000, 0.000000000000000, 0.000000000000000, 0.000000000000000, 0.000000000000000, 0.000000000000000 );
#64 = PLANE_ANGLE_MEASURE_WITH_UNIT( PLANE_ANGLE_MEASURE( 1.00000000000000 ), #76 );
#66 = DIMENSIONAL_EXPONENTS( 0.000000000000000, 0.000000000000000, 0.000000000000000, 0.000000000000000, 0.000000000000000, 0.000000000000000, 0.000000000000000 );
#71 = CLOSED_SHELL( '', ( #77, #78, #79, #80, #81, #82, #83, #84, #85, #86, #87, #88, #89, #90, #91, #92, #93, #94 ) );
#72 = CARTESIAN_POINT( '', ( 0.000000000000000, 0.000000000000000, 0.000000000000000 ) );
#73 = DIRECTION( '', ( 0.000000000000000, 0.000000000000000, 1.00000000000000 ) );
#74 = DIRECTION( '', ( 1.00000000000000, 0.000000000000000, 0.000000000000000 ) );
#75 =  ( NAMED_UNIT( #62 )LENGTH_UNIT(  )SI_UNIT( .MILLI., .METRE. ) );
#76 =  ( NAMED_UNIT( #66 )PLANE_ANGLE_UNIT(  )SI_UNIT( $, .RADIAN. ) );
#77 = ADVANCED_FACE( '', ( #97, #98 ), #99, .T. );
#78 = ADVANCED_FACE( '', ( #100, #101 ), #102, .T. );
#79 = ADVANCED_FACE( '', ( #103, #104 ), #105, .F. );
#80 = ADVANCED_FACE( '', ( #106, #107 ), #108, .T. );
#81 = ADVANCED_FACE( '', ( #109, #110 ), #111, .T. );
#82 = ADVANCED_FACE( '', ( #112, #113 ), #114, .T. );
#83 = ADVANCED_FACE( '', ( #115, #116 ), #117, .T. );
#84 = ADVANCED_FACE( '', ( #118, #119 ), #120, .T. );
#85 = ADVANCED_FACE( '', ( #121, #122 ), #123, .T. );
#86 = ADVANCED_FACE( '', ( #124, #125 ), #126, .T. );
#87 = ADVANCED_FACE( '', ( #127, #128 ), #129, .F. );
#88 = ADVANCED_FACE( '', ( #130, #131 ), #132, .F. );
#89 = ADVANCED_FACE( '', ( #133, #134 ), #135, .T. );
#90 = ADVANCED_FACE( '', ( #136, #137 ), #138, .T. );
#91 = ADVANCED_FACE( '', ( #139, #140 ), #141, .F. );
#92 = ADVANCED_FACE( '', ( #142, #143 ), #144, .T. );
#93 = ADVANCED_FACE( '', ( #145, #146 ), #147, .F. );
#94 = ADVANCED_FACE( '', ( #148, #149 ), #150, .T. );
#97 = FACE_BOUND( '', #151, .T. );
#98 = FACE_OUTER_BOUND( '', #152, .T. );
#99 = PLANE( '', #153 );
#100 = FACE_OUTER_BOUND( '', #154, .T. );
#101 = FACE_BOUND( '', #155, .T. );
#102 = PLANE( '', #156 );
#103 = FACE_OUTER_BOUND( '', #157, .T. );
#104 = FACE_OUTER_BOUND( '', #158, .T. );
#105 = TOROIDAL_SURFACE( '', #159, 12.9995000000000, 0.500000000000000 );
#106 = FACE_OUTER_BOUND( '', #160, .T. );
#107 = FACE_OUTER_BOUND( '', #161, .T. );
#108 = CYLINDRICAL_SURFACE( '', #162, 12.9995000000000 );
#109 = FACE_OUTER_BOUND( '', #163, .T. );
#110 = FACE_BOUND( '', #164, .T. );
#111 = PLANE( '', #165 );
#112 = FACE_BOUND( '', #166, .T. );
#113 = FACE_OUTER_BOUND( '', #167, .T. );
#114 = PLANE( '', #168 );
#115 = FACE_OUTER_BOUND( '', #169, .T. );
#116 = FACE_OUTER_BOUND( '', #170, .T. );
#117 = CYLINDRICAL_SURFACE( '', #171, 15.0000000000000 );
#118 = FACE_OUTER_BOUND( '', #172, .T. );
#119 = FACE_OUTER_BOUND( '', #173, .T. );
#120 = CYLINDRICAL_SURFACE( '', #174, 12.9995000000000 );
#121 = FACE_OUTER_BOUND( '', #175, .T. );
#122 = FACE_OUTER_BOUND( '', #176, .T. );
#123 = CYLINDRICAL_SURFACE( '', #177, 13.0000000000000 );
#124 = FACE_BOUND( '', #178, .T. );
#125 = FACE_OUTER_BOUND( '', #179, .T. );
#126 = PLANE( '', #180 );
#127 = FACE_OUTER_BOUND( '', #181, .T. );
#128 = FACE_OUTER_BOUND( '', #182, .T. );
#129 = TOROIDAL_SURFACE( '', #183, 13.0000000000000, 0.499999999999999 );
#130 = FACE_OUTER_BOUND( '', #184, .T. );
#131 = FACE_OUTER_BOUND( '', #185, .T. );
#132 = CYLINDRICAL_SURFACE( '', #186, 10.0000000000000 );
#133 = FACE_OUTER_BOUND( '', #187, .T. );
#134 = FACE_BOUND( '', #188, .T. );
#135 = CONICAL_SURFACE( '', #189, 12.4995000000000, 0.785398163397448 );
#136 = FACE_OUTER_BOUND( '', #190, .T. );
#137 = FACE_BOUND( '', #191, .T. );
#138 = CONICAL_SURFACE( '', #192, 14.5000000000000, 0.785398163397448 );
#139 = FACE_BOUND( '', #193, .T. );
#140 = FACE_OUTER_BOUND( '', #194, .T. );
#141 = CONICAL_SURFACE( '', #195, 10.2000000000000, 0.785398163397453 );
#142 = FACE_BOUND( '', #196, .T. );
#143 = FACE_OUTER_BOUND( '', #197, .T. );
#144 = CONICAL_SURFACE( '', #198, 15.0000000000000, 0.785398163397448 );
#145 = FACE_BOUND( '', #199, .T. );
#146 = FACE_OUTER_BOUND( '', #200, .T. );
#147 = CONICAL_SURFACE( '', #201, 10.2000000000000, 0.785398163397453 );
#148 = FACE_BOUND( '', #202, .T. );
#149 = FACE_OUTER_BOUND( '', #203, .T. );
#150 = CONICAL_SURFACE( '', #204, 12.9995000000000, 0.785398163397448 );
#151 = EDGE_LOOP( '', ( #205 ) );
#152 = EDGE_LOOP( '', ( #206 ) );
#153 = AXIS2_PLACEMENT_3D( '', #207, #208, #209 );
#154 = EDGE_LOOP( '', ( #210 ) );
#155 = EDGE_LOOP( '', ( #211 ) );
#156 = AXIS2_PLACEMENT_3D( '', #212, #213, #214 );
#157 = EDGE_LOOP( '', ( #215 ) );
#158 = EDGE_LOOP( '', ( #216 ) );
#159 = AXIS2_PLACEMENT_3D( '', #217, #218, #219 );
#160 = EDGE_LOOP( '', ( #220 ) );
#161 = EDGE_LOOP( '', ( #221 ) );
#162 = AXIS2_PLACEMENT_3D( '', #222, #223, #224 );
#163 = EDGE_LOOP( '', ( #225 ) );
#164 = EDGE_LOOP( '', ( #226 ) );
#165 = AXIS2_PLACEMENT_3D( '', #227, #228, #229 );
#166 = EDGE_LOOP( '', ( #230 ) );
#167 = EDGE_LOOP( '', ( #231 ) );
#168 = AXIS2_PLACEMENT_3D( '', #232, #233, #234 );
#169 = EDGE_LOOP( '', ( #235 ) );
#170 = EDGE_LOOP( '', ( #236 ) );
#171 = AXIS2_PLACEMENT_3D( '', #237, #238, #239 );
#172 = EDGE_LOOP( '', ( #240 ) );
#173 = EDGE_LOOP( '', ( #241 ) );
#174 = AXIS2_PLACEMENT_3D( '', #242, #243, #244 );
#175 = EDGE_LOOP( '', ( #245 ) );
#176 = EDGE_LOOP( '', ( #246 ) );
#177 = AXIS2_PLACEMENT_3D( '', #247, #248, #249 );
#178 = EDGE_LOOP( '', ( #250 ) );
#179 = EDGE_LOOP( '', ( #251 ) );
#180 = AXIS2_PLACEMENT_3D( '', #252, #253, #254 );
#181 = EDGE_LOOP( '', ( #255 ) );
#182 = EDGE_LOOP( '', ( #256 ) );
#183 = AXIS2_PLACEMENT_3D( '', #257, #258, #259 );
#184 = EDGE_LOOP( '', ( #260 ) );
#185 = EDGE_LOOP( '', ( #261 ) );
#186 = AXIS2_PLACEMENT_3D( '', #262, #263, #264 );
#187 = EDGE_LOOP( '', ( #265 ) );
#188 = EDGE_LOOP( '', ( #266 ) );
#189 = AXIS2_PLACEMENT_3D( '', #267, #268, #269 );
#190 = EDGE_LOOP( '', ( #270 ) );
#191 = EDGE_LOOP( '', ( #271 ) );
#192 = AXIS2_PLACEMENT_3D( '', #272, #273, #274 );
#193 = EDGE_LOOP( '', ( #275 ) );
#194 = EDGE_LOOP( '', ( #276 ) );
#195 = AXIS2_PLACEMENT_3D( '', #277, #278, #279 );
#196 = EDGE_LOOP( '', ( #280 ) );
#197 = EDGE_LOOP( '', ( #281 ) );
#198 = AXIS2_PLACEMENT_3D( '', #282, #283, #284 );
#199 = EDGE_LOOP( '', ( #285 ) );
#200 = EDGE_LOOP( '', ( #286 ) );
#201 = AXIS2_PLACEMENT_3D( '', #287, #288, #289 );
#202 = EDGE_LOOP( '', ( #290 ) );
#203 = EDGE_LOOP( '', ( #291 ) );
#204 = AXIS2_PLACEMENT_3D( '', #292, #293, #294 );
#205 = ORIENTED_EDGE( '', *, *, #295, .T. );
#206 = ORIENTED_EDGE( '', *, *, #296, .T. );
#207 = CARTESIAN_POINT( '', ( -1.83690953073357E-016, 0.000000000000000, 12.9995000000000 ) );
#208 = DIRECTION( '', ( -1.00000000000000, 0.000000000000000, 0.000000000000000 ) );
#209 = DIRECTION( '', ( 0.000000000000000, 0.000000000000000, 1.00000000000000 ) );
#210 = ORIENTED_EDGE( '', *, *, #297, .T. );
#211 = ORIENTED_EDGE( '', *, *, #298, .T. );
#212 = CARTESIAN_POINT( '', ( 15.0000000000000, 0.000000000000000, 15.0000000000000 ) );
#213 = DIRECTION( '', ( 1.00000000000000, 0.000000000000000, 0.000000000000000 ) );
#214 = DIRECTION( '', ( 0.000000000000000, 0.000000000000000, -1.00000000000000 ) );
#215 = ORIENTED_EDGE( '', *, *, #299, .T. );
#216 = ORIENTED_EDGE( '', *, *, #300, .T. );
#217 = CARTESIAN_POINT( '', ( 8.50000000000001, 0.000000000000000, 6.93889390390723E-015 ) );
#218 = DIRECTION( '', ( -1.00000000000000, 0.000000000000000, 2.98353444545281E-018 ) );
#219 = DIRECTION( '', ( 2.98353444545281E-018, 0.000000000000000, 1.00000000000000 ) );
#220 = ORIENTED_EDGE( '', *, *, #301, .T. );
#221 = ORIENTED_EDGE( '', *, *, #299, .F. );
#222 = CARTESIAN_POINT( '', ( 280.000000000000, 0.000000000000000, 7.34763812293426E-015 ) );
#223 = DIRECTION( '', ( 1.00000000000000, 0.000000000000000, 0.000000000000000 ) );
#224 = DIRECTION( '', ( 0.000000000000000, 0.000000000000000, 1.00000000000000 ) );
#225 = ORIENTED_EDGE( '', *, *, #302, .T. );
#226 = ORIENTED_EDGE( '', *, *, #300, .F. );
#227 = CARTESIAN_POINT( '', ( 9.00000000000000, 0.000000000000000, 12.9995000000000 ) );
#228 = DIRECTION( '', ( -1.00000000000000, 0.000000000000000, 0.000000000000000 ) );
#229 = DIRECTION( '', ( 0.000000000000000, 0.000000000000000, 1.00000000000000 ) );
#230 = ORIENTED_EDGE( '', *, *, #303, .T. );
#231 = ORIENTED_EDGE( '', *, *, #304, .T. );
#232 = CARTESIAN_POINT( '', ( 25.0000000000000, 0.000000000000000, 12.9995000000000 ) );
#233 = DIRECTION( '', ( 1.00000000000000, 0.000000000000000, 0.000000000000000 ) );
#234 = DIRECTION( '', ( 0.000000000000000, 0.000000000000000, -1.00000000000000 ) );
#235 = ORIENTED_EDGE( '', *, *, #305, .T. );
#236 = ORIENTED_EDGE( '', *, *, #306, .T. );
#237 = CARTESIAN_POINT( '', ( 280.000000000000, 0.000000000000000, 7.34763812293426E-015 ) );
#238 = DIRECTION( '', ( 1.00000000000000, 0.000000000000000, 0.000000000000000 ) );
#239 = DIRECTION( '', ( 0.000000000000000, 0.000000000000000, 1.00000000000000 ) );
#240 = ORIENTED_EDGE( '', *, *, #307, .T. );
#241 = ORIENTED_EDGE( '', *, *, #308, .F. );
#242 = CARTESIAN_POINT( '', ( 280.000000000000, 0.000000000000000, 7.34763812293426E-015 ) );
#243 = DIRECTION( '', ( 1.00000000000000, 0.000000000000000, 0.000000000000000 ) );
#244 = DIRECTION( '', ( 0.000000000000000, 0.000000000000000, 1.00000000000000 ) );
#245 = ORIENTED_EDGE( '', *, *, #309, .F. );
#246 = ORIENTED_EDGE( '', *, *, #310, .T. );
#247 = CARTESIAN_POINT( '', ( 280.000000000000, 0.000000000000000, 7.34763812293426E-015 ) );
#248 = DIRECTION( '', ( 1.00000000000000, 0.000000000000000, 0.000000000000000 ) );
#249 = DIRECTION( '', ( 0.000000000000000, 0.000000000000000, 1.00000000000000 ) );
#250 = ORIENTED_EDGE( '', *, *, #308, .T. );
#251 = ORIENTED_EDGE( '', *, *, #310, .F. );
#252 = CARTESIAN_POINT( '', ( 21.0000000000000, 0.000000000000000, 13.0000000000000 ) );
#253 = DIRECTION( '', ( 1.00000000000000, 0.000000000000000, 0.000000000000000 ) );
#254 = DIRECTION( '', ( 0.000000000000000, 0.000000000000000, -1.00000000000000 ) );
#255 = ORIENTED_EDGE( '', *, *, #298, .F. );
#256 = ORIENTED_EDGE( '', *, *, #309, .T. );
#257 = CARTESIAN_POINT( '', ( 15.5000000000000, 0.000000000000000, 6.93889390390723E-015 ) );
#258 = DIRECTION( '', ( -1.00000000000000, 0.000000000000000, 2.98353444545281E-018 ) );
#259 = DIRECTION( '', ( 2.98353444545281E-018, 0.000000000000000, 1.00000000000000 ) );
#260 = ORIENTED_EDGE( '', *, *, #311, .T. );
#261 = ORIENTED_EDGE( '', *, *, #312, .T. );
#262 = CARTESIAN_POINT( '', ( 55.0000000000000, 0.000000000000000, 7.34763812293426E-015 ) );
#263 = DIRECTION( '', ( 1.00000000000000, 0.000000000000000, 0.000000000000000 ) );
#264 = DIRECTION( '', ( 0.000000000000000, 0.000000000000000, 1.00000000000000 ) );
#265 = ORIENTED_EDGE( '', *, *, #301, .F. );
#266 = ORIENTED_EDGE( '', *, *, #296, .F. );
#267 = CARTESIAN_POINT( '', ( 0.000000000000000, 0.000000000000000, 7.34763812293426E-015 ) );
#268 = DIRECTION( '', ( 1.00000000000000, 0.000000000000000, 0.000000000000000 ) );
#269 = DIRECTION( '', ( 0.000000000000000, 0.000000000000000, -1.00000000000000 ) );
#270 = ORIENTED_EDGE( '', *, *, #306, .F. );
#271 = ORIENTED_EDGE( '', *, *, #302, .F. );
#272 = CARTESIAN_POINT( '', ( 9.00000000000001, 0.000000000000000, 7.34763812293426E-015 ) );
#273 = DIRECTION( '', ( 1.00000000000000, 0.000000000000000, 0.000000000000000 ) );
#274 = DIRECTION( '', ( 0.000000000000000, 0.000000000000000, -1.00000000000000 ) );
#275 = ORIENTED_EDGE( '', *, *, #311, .F. );
#276 = ORIENTED_EDGE( '', *, *, #295, .F. );
#277 = CARTESIAN_POINT( '', ( 0.000000000000000, 0.000000000000000, 7.34763812293426E-015 ) );
#278 = DIRECTION( '', ( -1.00000000000000, 0.000000000000000, 0.000000000000000 ) );
#279 = DIRECTION( '', ( 0.000000000000000, 0.000000000000000, 1.00000000000000 ) );
#280 = ORIENTED_EDGE( '', *, *, #297, .F. );
#281 = ORIENTED_EDGE( '', *, *, #305, .F. );
#282 = CARTESIAN_POINT( '', ( 14.5000000000000, 0.000000000000000, 7.34763812293426E-015 ) );
#283 = DIRECTION( '', ( -1.00000000000000, 0.000000000000000, 0.000000000000000 ) );
#284 = DIRECTION( '', ( 0.000000000000000, 0.000000000000000, 1.00000000000000 ) );
#285 = ORIENTED_EDGE( '', *, *, #312, .F. );
#286 = ORIENTED_EDGE( '', *, *, #303, .F. );
#287 = CARTESIAN_POINT( '', ( 25.0000000000000, 0.000000000000000, 7.34763812293426E-015 ) );
#288 = DIRECTION( '', ( 1.00000000000000, 0.000000000000000, 0.000000000000000 ) );
#289 = DIRECTION( '', ( 0.000000000000000, 0.000000000000000, -1.00000000000000 ) );
#290 = ORIENTED_EDGE( '', *, *, #304, .F. );
#291 = ORIENTED_EDGE( '', *, *, #307, .F. );
#292 = CARTESIAN_POINT( '', ( 24.5000000000000, 0.000000000000000, 7.34763812293426E-015 ) );
#293 = DIRECTION( '', ( -1.00000000000000, 0.000000000000000, 0.000000000000000 ) );
#294 = DIRECTION( '', ( 0.000000000000000, 0.000000000000000, 1.00000000000000 ) );
#295 = EDGE_CURVE( '', #313, #313, #314, .F. );
#296 = EDGE_CURVE( '', #315, #315, #316, .T. );
#297 = EDGE_CURVE( '', #317, #317, #318, .T. );
#298 = EDGE_CURVE( '', #319, #319, #320, .T. );
#299 = EDGE_CURVE( '', #321, #321, #322, .T. );
#300 = EDGE_CURVE( '', #323, #323, #324, .T. );
#301 = EDGE_CURVE( '', #325, #325, #326, .F. );
#302 = EDGE_CURVE( '', #327, #327, #328, .T. );
#303 = EDGE_CURVE( '', #329, #329, #330, .F. );
#304 = EDGE_CURVE( '', #331, #331, #332, .T. );
#305 = EDGE_CURVE( '', #333, #333, #334, .F. );
#306 = EDGE_CURVE( '', #335, #335, #336, .F. );
#307 = EDGE_CURVE( '', #337, #337, #338, .F. );
#308 = EDGE_CURVE( '', #339, #339, #340, .T. );
#309 = EDGE_CURVE( '', #341, #341, #342, .T. );
#310 = EDGE_CURVE( '', #343, #343, #344, .T. );
#311 = EDGE_CURVE( '', #345, #345, #346, .T. );
#312 = EDGE_CURVE( '', #347, #347, #348, .T. );
#313 = VERTEX_POINT( '', #349 );
#314 = CIRCLE( '', #350, 10.2000000000000 );
#315 = VERTEX_POINT( '', #351 );
#316 = CIRCLE( '', #352, 12.4995000000000 );
#317 = VERTEX_POINT( '', #353 );
#318 = CIRCLE( '', #354, 14.5000000000000 );
#319 = VERTEX_POINT( '', #355 );
#320 = CIRCLE( '', #356, 13.0000000000000 );
#321 = VERTEX_POINT( '', #357 );
#322 = CIRCLE( '', #358, 12.9995000000000 );
#323 = VERTEX_POINT( '', #359 );
#324 = CIRCLE( '', #360, 12.9995000000000 );
#325 = VERTEX_POINT( '', #361 );
#326 = CIRCLE( '', #362, 12.9995000000000 );
#327 = VERTEX_POINT( '', #363 );
#328 = CIRCLE( '', #364, 14.5000000000000 );
#329 = VERTEX_POINT( '', #365 );
#330 = CIRCLE( '', #366, 10.2000000000000 );
#331 = VERTEX_POINT( '', #367 );
#332 = CIRCLE( '', #368, 12.4995000000000 );
#333 = VERTEX_POINT( '', #369 );
#334 = CIRCLE( '', #370, 15.0000000000000 );
#335 = VERTEX_POINT( '', #371 );
#336 = CIRCLE( '', #372, 15.0000000000000 );
#337 = VERTEX_POINT( '', #373 );
#338 = CIRCLE( '', #374, 12.9995000000000 );
#339 = VERTEX_POINT( '', #375 );
#340 = CIRCLE( '', #376, 12.9995000000000 );
#341 = VERTEX_POINT( '', #377 );
#342 = CIRCLE( '', #378, 13.0000000000000 );
#343 = VERTEX_POINT( '', #379 );
#344 = CIRCLE( '', #380, 13.0000000000000 );
#345 = VERTEX_POINT( '', #381 );
#346 = CIRCLE( '', #382, 10.0000000000000 );
#347 = VERTEX_POINT( '', #383 );
#348 = CIRCLE( '', #384, 10.0000000000000 );
#349 = CARTESIAN_POINT( '', ( -1.83690953073357E-016, 0.000000000000000, 10.2000000000000 ) );
#350 = AXIS2_PLACEMENT_3D( '', #385, #386, #387 );
#351 = CARTESIAN_POINT( '', ( -1.83690953073357E-016, 0.000000000000000, 12.4995000000000 ) );
#352 = AXIS2_PLACEMENT_3D( '', #388, #389, #390 );
#353 = CARTESIAN_POINT( '', ( 15.0000000000000, 0.000000000000000, -14.5000000000000 ) );
#354 = AXIS2_PLACEMENT_3D( '', #391, #392, #393 );
#355 = CARTESIAN_POINT( '', ( 15.0000000000000, 0.000000000000000, 13.0000000000000 ) );
#356 = AXIS2_PLACEMENT_3D( '', #394, #395, #396 );
#357 = CARTESIAN_POINT( '', ( 8.00000000000001, 0.000000000000000, -12.9995000000000 ) );
#358 = AXIS2_PLACEMENT_3D( '', #397, #398, #399 );
#359 = CARTESIAN_POINT( '', ( 9.00000000000001, 0.000000000000000, 12.9995000000000 ) );
#360 = AXIS2_PLACEMENT_3D( '', #400, #401, #402 );
#361 = CARTESIAN_POINT( '', ( 0.500000000000000, 0.000000000000000, 12.9995000000000 ) );
#362 = AXIS2_PLACEMENT_3D( '', #403, #404, #405 );
#363 = CARTESIAN_POINT( '', ( 9.00000000000000, 0.000000000000000, 14.5000000000000 ) );
#364 = AXIS2_PLACEMENT_3D( '', #406, #407, #408 );
#365 = CARTESIAN_POINT( '', ( 25.0000000000000, 0.000000000000000, -10.2000000000000 ) );
#366 = AXIS2_PLACEMENT_3D( '', #409, #410, #411 );
#367 = CARTESIAN_POINT( '', ( 25.0000000000000, 0.000000000000000, -12.4995000000000 ) );
#368 = AXIS2_PLACEMENT_3D( '', #412, #413, #414 );
#369 = CARTESIAN_POINT( '', ( 14.5000000000000, 0.000000000000000, -15.0000000000000 ) );
#370 = AXIS2_PLACEMENT_3D( '', #415, #416, #417 );
#371 = CARTESIAN_POINT( '', ( 9.50000000000001, 0.000000000000000, 15.0000000000000 ) );
#372 = AXIS2_PLACEMENT_3D( '', #418, #419, #420 );
#373 = CARTESIAN_POINT( '', ( 24.5000000000000, 0.000000000000000, -12.9995000000000 ) );
#374 = AXIS2_PLACEMENT_3D( '', #421, #422, #423 );
#375 = CARTESIAN_POINT( '', ( 21.0000000000000, 0.000000000000000, 12.9995000000000 ) );
#376 = AXIS2_PLACEMENT_3D( '', #424, #425, #426 );
#377 = CARTESIAN_POINT( '', ( 16.0000000000000, 0.000000000000000, 13.0000000000000 ) );
#378 = AXIS2_PLACEMENT_3D( '', #427, #428, #429 );
#379 = CARTESIAN_POINT( '', ( 21.0000000000000, 0.000000000000000, 13.0000000000000 ) );
#380 = AXIS2_PLACEMENT_3D( '', #430, #431, #432 );
#381 = CARTESIAN_POINT( '', ( 0.199999999999999, 0.000000000000000, 10.0000000000000 ) );
#382 = AXIS2_PLACEMENT_3D( '', #433, #434, #435 );
#383 = CARTESIAN_POINT( '', ( 24.8000000000000, 0.000000000000000, -9.99999999999999 ) );
#384 = AXIS2_PLACEMENT_3D( '', #436, #437, #438 );
#385 = CARTESIAN_POINT( '', ( -1.83690953073357E-016, 0.000000000000000, 7.34763812293426E-015 ) );
#386 = DIRECTION( '', ( -1.00000000000000, 0.000000000000000, 0.000000000000000 ) );
#387 = DIRECTION( '', ( 0.000000000000000, 0.000000000000000, 1.00000000000000 ) );
#388 = CARTESIAN_POINT( '', ( -1.83690953073357E-016, 0.000000000000000, 7.34763812293426E-015 ) );
#389 = DIRECTION( '', ( -1.00000000000000, 0.000000000000000, 0.000000000000000 ) );
#390 = DIRECTION( '', ( 0.000000000000000, 0.000000000000000, 1.00000000000000 ) );
#391 = CARTESIAN_POINT( '', ( 15.0000000000000, 0.000000000000000, 7.34763812293426E-015 ) );
#392 = DIRECTION( '', ( 1.00000000000000, 0.000000000000000, 0.000000000000000 ) );
#393 = DIRECTION( '', ( 0.000000000000000, 0.000000000000000, -1.00000000000000 ) );
#394 = CARTESIAN_POINT( '', ( 15.0000000000000, 0.000000000000000, 7.34763812293426E-015 ) );
#395 = DIRECTION( '', ( -1.00000000000000, 0.000000000000000, 0.000000000000000 ) );
#396 = DIRECTION( '', ( 0.000000000000000, 0.000000000000000, 1.00000000000000 ) );
#397 = CARTESIAN_POINT( '', ( 8.00000000000001, 0.000000000000000, 6.94038567112995E-015 ) );
#398 = DIRECTION( '', ( 1.00000000000000, 0.000000000000000, -2.98353444545281E-018 ) );
#399 = DIRECTION( '', ( -2.98353444545281E-018, 0.000000000000000, -1.00000000000000 ) );
#400 = CARTESIAN_POINT( '', ( 9.00000000000001, 0.000000000000000, 7.34763812293426E-015 ) );
#401 = DIRECTION( '', ( -1.00000000000000, 0.000000000000000, 0.000000000000000 ) );
#402 = DIRECTION( '', ( 0.000000000000000, 0.000000000000000, 1.00000000000000 ) );
#403 = CARTESIAN_POINT( '', ( 0.500000000000000, 0.000000000000000, 7.34763812293426E-015 ) );
#404 = DIRECTION( '', ( -1.00000000000000, 0.000000000000000, 0.000000000000000 ) );
#405 = DIRECTION( '', ( 0.000000000000000, 0.000000000000000, 1.00000000000000 ) );
#406 = CARTESIAN_POINT( '', ( 9.00000000000000, 0.000000000000000, 7.34763812293426E-015 ) );
#407 = DIRECTION( '', ( -1.00000000000000, 0.000000000000000, 0.000000000000000 ) );
#408 = DIRECTION( '', ( 0.000000000000000, 0.000000000000000, 1.00000000000000 ) );
#409 = CARTESIAN_POINT( '', ( 25.0000000000000, 0.000000000000000, 7.34763812293426E-015 ) );
#410 = DIRECTION( '', ( 1.00000000000000, 0.000000000000000, 0.000000000000000 ) );
#411 = DIRECTION( '', ( 0.000000000000000, 0.000000000000000, -1.00000000000000 ) );
#412 = CARTESIAN_POINT( '', ( 25.0000000000000, 0.000000000000000, 7.34763812293426E-015 ) );
#413 = DIRECTION( '', ( 1.00000000000000, 0.000000000000000, 0.000000000000000 ) );
#414 = DIRECTION( '', ( 0.000000000000000, 0.000000000000000, -1.00000000000000 ) );
#415 = CARTESIAN_POINT( '', ( 14.5000000000000, 0.000000000000000, 7.34763812293426E-015 ) );
#416 = DIRECTION( '', ( 1.00000000000000, 0.000000000000000, 0.000000000000000 ) );
#417 = DIRECTION( '', ( 0.000000000000000, 0.000000000000000, -1.00000000000000 ) );
#418 = CARTESIAN_POINT( '', ( 9.50000000000001, 0.000000000000000, 7.34763812293426E-015 ) );
#419 = DIRECTION( '', ( -1.00000000000000, 0.000000000000000, 0.000000000000000 ) );
#420 = DIRECTION( '', ( 0.000000000000000, 0.000000000000000, 1.00000000000000 ) );
#421 = CARTESIAN_POINT( '', ( 24.5000000000000, 0.000000000000000, 7.34763812293426E-015 ) );
#422 = DIRECTION( '', ( 1.00000000000000, 0.000000000000000, 0.000000000000000 ) );
#423 = DIRECTION( '', ( 0.000000000000000, 0.000000000000000, -1.00000000000000 ) );
#424 = CARTESIAN_POINT( '', ( 21.0000000000000, 0.000000000000000, 7.34763812293426E-015 ) );
#425 = DIRECTION( '', ( -1.00000000000000, 0.000000000000000, 0.000000000000000 ) );
#426 = DIRECTION( '', ( 0.000000000000000, 0.000000000000000, 1.00000000000000 ) );
#427 = CARTESIAN_POINT( '', ( 16.0000000000000, 0.000000000000000, 6.93740213668450E-015 ) );
#428 = DIRECTION( '', ( -1.00000000000000, 0.000000000000000, 2.98353444545281E-018 ) );
#429 = DIRECTION( '', ( 2.98353444545281E-018, 0.000000000000000, 1.00000000000000 ) );
#430 = CARTESIAN_POINT( '', ( 21.0000000000000, 0.000000000000000, 7.34763812293426E-015 ) );
#431 = DIRECTION( '', ( -1.00000000000000, 0.000000000000000, 0.000000000000000 ) );
#432 = DIRECTION( '', ( 0.000000000000000, 0.000000000000000, 1.00000000000000 ) );
#433 = CARTESIAN_POINT( '', ( 0.199999999999999, 0.000000000000000, 7.34763812293426E-015 ) );
#434 = DIRECTION( '', ( -1.00000000000000, 0.000000000000000, 0.000000000000000 ) );
#435 = DIRECTION( '', ( 0.000000000000000, 0.000000000000000, 1.00000000000000 ) );
#436 = CARTESIAN_POINT( '', ( 24.8000000000000, 0.000000000000000, 7.34763812293426E-015 ) );
#437 = DIRECTION( '', ( 1.00000000000000, 0.000000000000000, 0.000000000000000 ) );
#438 = DIRECTION( '', ( 0.000000000000000, 0.000000000000000, -1.00000000000000 ) );
ENDSEC;
END-ISO-10303-21;
