ISO-10303-21;
HEADER;
FILE_DESCRIPTION( ( 'Unknown' ), '1' );
FILE_NAME( 'C:/Documents and Settings/BEATRIZ/Escritorio/ORYMO/COMPONENTES/CASQUILLOS/CASQUILLOS CVS/CVS_42x175/CVS_42x175.stp', 'Unknown', ( 'Unknown' ), ( 'Unknown' ), 'XStep 1.0', 'Unknown', ' ' );
FILE_SCHEMA( ( 'CONFIG_CONTROL_DESIGN' ) );
ENDSEC;
DATA;
#1 = DESIGN_CONTEXT( '', #27, 'design' );
#2 = APPLICATION_PROTOCOL_DEFINITION( 'INTERNATIONAL STANDARD', 'config_control_design', 1994, #27 );
#3 = PRODUCT_CATEGORY_RELATIONSHIP( 'NONE', 'NONE', #28, #29 );
#4 = DATE_AND_TIME( #30, #31 );
#5 = DATE_TIME_ROLE( 'creation_date' );
#6 = DATE_TIME_ROLE( 'classification_date' );
#7 = PERSON_AND_ORGANIZATION_ROLE( 'creator' );
#8 = PERSON_AND_ORGANIZATION_ROLE( 'design_supplier' );
#9 = PERSON_AND_ORGANIZATION_ROLE( 'classification_officer' );
#10 = PERSON_AND_ORGANIZATION_ROLE( 'design_owner' );
#11 = APPROVAL_PERSON_ORGANIZATION( #32, #33, #34 );
#12 = APPROVAL_DATE_TIME( #4, #33 );
#13 = CC_DESIGN_APPROVAL( #33, ( #35, #36, #37 ) );
#14 = CC_DESIGN_DATE_AND_TIME_ASSIGNMENT( #4, #5, ( #37 ) );
#15 = CC_DESIGN_DATE_AND_TIME_ASSIGNMENT( #4, #6, ( #35 ) );
#16 = CC_DESIGN_PERSON_AND_ORGANIZATION_ASSIGNMENT( #32, #10, ( #38 ) );
#17 = CC_DESIGN_PERSON_AND_ORGANIZATION_ASSIGNMENT( #32, #7, ( #37 ) );
#18 = CC_DESIGN_PERSON_AND_ORGANIZATION_ASSIGNMENT( #32, #7, ( #36 ) );
#19 = CC_DESIGN_PERSON_AND_ORGANIZATION_ASSIGNMENT( #32, #8, ( #36 ) );
#20 = CC_DESIGN_SECURITY_CLASSIFICATION( #35, ( #36 ) );
#21 = CC_DESIGN_PERSON_AND_ORGANIZATION_ASSIGNMENT( #32, #9, ( #35 ) );
#22 = SHAPE_DEFINITION_REPRESENTATION( #39, #40 );
#23 =  ( GEOMETRIC_REPRESENTATION_CONTEXT( 3 )GLOBAL_UNCERTAINTY_ASSIGNED_CONTEXT( ( #43 ) )GLOBAL_UNIT_ASSIGNED_CONTEXT( ( #45, #46, #47 ) )REPRESENTATION_CONTEXT( 'NONE', 'WORKSPACE' ) );
#27 = APPLICATION_CONTEXT( 'CONFIGURATION CONTROLLED 3D DESIGNS OF MECHANICAL PARTS AND ASSEMBLIES' );
#28 = PRODUCT_CATEGORY( 'part', 'NONE' );
#29 = PRODUCT_RELATED_PRODUCT_CATEGORY( 'detail', ' ', ( #38 ) );
#30 = CALENDAR_DATE( 2004, 23, 8 );
#31 = LOCAL_TIME( 10, 18, 8.00000000000000, #49 );
#32 = PERSON_AND_ORGANIZATION( #50, #51 );
#33 = APPROVAL( #52, 'SOLID MODEL' );
#34 = APPROVAL_ROLE( 'APPROVED' );
#35 = SECURITY_CLASSIFICATION( '', '', #53 );
#36 = PRODUCT_DEFINITION_FORMATION_WITH_SPECIFIED_SOURCE( ' ', 'NONE', #38, .NOT_KNOWN. );
#37 = PRODUCT_DEFINITION( 'NONE', 'NONE', #36, #1 );
#38 = PRODUCT( '1', '1', 'PART-1-DESC', ( #54 ) );
#39 = PRODUCT_DEFINITION_SHAPE( 'NONE', 'NONE', #37 );
#40 = ADVANCED_BREP_SHAPE_REPRESENTATION( '1', ( #55, #56 ), #23 );
#43 = UNCERTAINTY_MEASURE_WITH_UNIT( LENGTH_MEASURE( 0.00100000000000000 ), #45, '', '' );
#45 =  ( CONVERSION_BASED_UNIT( 'MILLIMETRE', #59 )LENGTH_UNIT(  )NAMED_UNIT( #62 ) );
#46 =  ( CONVERSION_BASED_UNIT( 'RADIAN', #64 )NAMED_UNIT( #66 )PLANE_ANGLE_UNIT(  ) );
#47 =  ( NAMED_UNIT( #66 )SOLID_ANGLE_UNIT(  )SI_UNIT( $, .STERADIAN. ) );
#49 = COORDINATED_UNIVERSAL_TIME_OFFSET( 1, 0, .AHEAD. );
#50 = PERSON( '', 'UNSPECIFIED', $, $, $, $ );
#51 = ORGANIZATION( 'UNSPECIFIED', 'UNSPECIFIED', 'UNSPECIFIED' );
#52 = APPROVAL_STATUS( 'approved' );
#53 = SECURITY_CLASSIFICATION_LEVEL( 'unclassified' );
#54 = MECHANICAL_CONTEXT( '', #27, 'mechanical' );
#55 = MANIFOLD_SOLID_BREP( '1', #71 );
#56 = AXIS2_PLACEMENT_3D( '', #72, #73, #74 );
#59 = LENGTH_MEASURE_WITH_UNIT( LENGTH_MEASURE( 1.00000000000000 ), #75 );
#62 = DIMENSIONAL_EXPONENTS( 1.00000000000000, 0.000000000000000, 0.000000000000000, 0.000000000000000, 0.000000000000000, 0.000000000000000, 0.000000000000000 );
#64 = PLANE_ANGLE_MEASURE_WITH_UNIT( PLANE_ANGLE_MEASURE( 1.00000000000000 ), #76 );
#66 = DIMENSIONAL_EXPONENTS( 0.000000000000000, 0.000000000000000, 0.000000000000000, 0.000000000000000, 0.000000000000000, 0.000000000000000, 0.000000000000000 );
#71 = CLOSED_SHELL( '', ( #77, #78, #79, #80, #81, #82, #83, #84, #85, #86, #87, #88, #89, #90, #91, #92 ) );
#72 = CARTESIAN_POINT( '', ( 0.000000000000000, 0.000000000000000, 0.000000000000000 ) );
#73 = DIRECTION( '', ( 0.000000000000000, 0.000000000000000, 1.00000000000000 ) );
#74 = DIRECTION( '', ( 1.00000000000000, 0.000000000000000, 0.000000000000000 ) );
#75 =  ( NAMED_UNIT( #62 )LENGTH_UNIT(  )SI_UNIT( .MILLI., .METRE. ) );
#76 =  ( NAMED_UNIT( #66 )PLANE_ANGLE_UNIT(  )SI_UNIT( $, .RADIAN. ) );
#77 = ADVANCED_FACE( '', ( #95, #96 ), #97, .T. );
#78 = ADVANCED_FACE( '', ( #98, #99 ), #100, .T. );
#79 = ADVANCED_FACE( '', ( #101, #102 ), #103, .F. );
#80 = ADVANCED_FACE( '', ( #104, #105 ), #106, .F. );
#81 = ADVANCED_FACE( '', ( #107, #108 ), #109, .F. );
#82 = ADVANCED_FACE( '', ( #110, #111 ), #112, .T. );
#83 = ADVANCED_FACE( '', ( #113, #114 ), #115, .F. );
#84 = ADVANCED_FACE( '', ( #116, #117 ), #118, .T. );
#85 = ADVANCED_FACE( '', ( #119, #120 ), #121, .T. );
#86 = ADVANCED_FACE( '', ( #122, #123 ), #124, .T. );
#87 = ADVANCED_FACE( '', ( #125, #126 ), #127, .T. );
#88 = ADVANCED_FACE( '', ( #128, #129 ), #130, .T. );
#89 = ADVANCED_FACE( '', ( #131, #132 ), #133, .T. );
#90 = ADVANCED_FACE( '', ( #134, #135 ), #136, .T. );
#91 = ADVANCED_FACE( '', ( #137, #138 ), #139, .F. );
#92 = ADVANCED_FACE( '', ( #140, #141 ), #142, .F. );
#95 = FACE_BOUND( '', #143, .T. );
#96 = FACE_OUTER_BOUND( '', #144, .T. );
#97 = PLANE( '', #145 );
#98 = FACE_OUTER_BOUND( '', #146, .T. );
#99 = FACE_BOUND( '', #147, .T. );
#100 = PLANE( '', #148 );
#101 = FACE_OUTER_BOUND( '', #149, .T. );
#102 = FACE_BOUND( '', #150, .T. );
#103 = PLANE( '', #151 );
#104 = FACE_OUTER_BOUND( '', #152, .T. );
#105 = FACE_OUTER_BOUND( '', #153, .T. );
#106 = CYLINDRICAL_SURFACE( '', #154, 20.9995000000000 );
#107 = FACE_OUTER_BOUND( '', #155, .T. );
#108 = FACE_OUTER_BOUND( '', #156, .T. );
#109 = TOROIDAL_SURFACE( '', #157, 27.0000000000000, 0.500000000000000 );
#110 = FACE_BOUND( '', #158, .T. );
#111 = FACE_OUTER_BOUND( '', #159, .T. );
#112 = CONICAL_SURFACE( '', #160, 26.9995000000000, 0.785398163397448 );
#113 = FACE_OUTER_BOUND( '', #161, .T. );
#114 = FACE_OUTER_BOUND( '', #162, .T. );
#115 = CYLINDRICAL_SURFACE( '', #163, 21.0000000000000 );
#116 = FACE_OUTER_BOUND( '', #164, .T. );
#117 = FACE_OUTER_BOUND( '', #165, .T. );
#118 = CYLINDRICAL_SURFACE( '', #166, 27.0000000000000 );
#119 = FACE_OUTER_BOUND( '', #167, .T. );
#120 = FACE_OUTER_BOUND( '', #168, .T. );
#121 = CYLINDRICAL_SURFACE( '', #169, 30.0000000000000 );
#122 = FACE_BOUND( '', #170, .T. );
#123 = FACE_OUTER_BOUND( '', #171, .T. );
#124 = PLANE( '', #172 );
#125 = FACE_OUTER_BOUND( '', #173, .T. );
#126 = FACE_OUTER_BOUND( '', #174, .T. );
#127 = CYLINDRICAL_SURFACE( '', #175, 26.9995000000000 );
#128 = FACE_BOUND( '', #176, .T. );
#129 = FACE_OUTER_BOUND( '', #177, .T. );
#130 = PLANE( '', #178 );
#131 = FACE_BOUND( '', #179, .T. );
#132 = FACE_OUTER_BOUND( '', #180, .T. );
#133 = CONICAL_SURFACE( '', #181, 30.0000000000000, 0.785398163397448 );
#134 = FACE_OUTER_BOUND( '', #182, .T. );
#135 = FACE_BOUND( '', #183, .T. );
#136 = CONICAL_SURFACE( '', #184, 29.5000000000000, 0.785398163397448 );
#137 = FACE_OUTER_BOUND( '', #185, .T. );
#138 = FACE_BOUND( '', #186, .T. );
#139 = CONICAL_SURFACE( '', #187, 20.9995000000000, 0.785398163397431 );
#140 = FACE_BOUND( '', #188, .T. );
#141 = FACE_OUTER_BOUND( '', #189, .T. );
#142 = CONICAL_SURFACE( '', #190, 21.2000000000000, 0.785398163397431 );
#143 = EDGE_LOOP( '', ( #191 ) );
#144 = EDGE_LOOP( '', ( #192 ) );
#145 = AXIS2_PLACEMENT_3D( '', #193, #194, #195 );
#146 = EDGE_LOOP( '', ( #196 ) );
#147 = EDGE_LOOP( '', ( #197 ) );
#148 = AXIS2_PLACEMENT_3D( '', #198, #199, #200 );
#149 = EDGE_LOOP( '', ( #201 ) );
#150 = EDGE_LOOP( '', ( #202 ) );
#151 = AXIS2_PLACEMENT_3D( '', #203, #204, #205 );
#152 = EDGE_LOOP( '', ( #206 ) );
#153 = EDGE_LOOP( '', ( #207 ) );
#154 = AXIS2_PLACEMENT_3D( '', #208, #209, #210 );
#155 = EDGE_LOOP( '', ( #211 ) );
#156 = EDGE_LOOP( '', ( #212 ) );
#157 = AXIS2_PLACEMENT_3D( '', #213, #214, #215 );
#158 = EDGE_LOOP( '', ( #216 ) );
#159 = EDGE_LOOP( '', ( #217 ) );
#160 = AXIS2_PLACEMENT_3D( '', #218, #219, #220 );
#161 = EDGE_LOOP( '', ( #221 ) );
#162 = EDGE_LOOP( '', ( #222 ) );
#163 = AXIS2_PLACEMENT_3D( '', #223, #224, #225 );
#164 = EDGE_LOOP( '', ( #226 ) );
#165 = EDGE_LOOP( '', ( #227 ) );
#166 = AXIS2_PLACEMENT_3D( '', #228, #229, #230 );
#167 = EDGE_LOOP( '', ( #231 ) );
#168 = EDGE_LOOP( '', ( #232 ) );
#169 = AXIS2_PLACEMENT_3D( '', #233, #234, #235 );
#170 = EDGE_LOOP( '', ( #236 ) );
#171 = EDGE_LOOP( '', ( #237 ) );
#172 = AXIS2_PLACEMENT_3D( '', #238, #239, #240 );
#173 = EDGE_LOOP( '', ( #241 ) );
#174 = EDGE_LOOP( '', ( #242 ) );
#175 = AXIS2_PLACEMENT_3D( '', #243, #244, #245 );
#176 = EDGE_LOOP( '', ( #246 ) );
#177 = EDGE_LOOP( '', ( #247 ) );
#178 = AXIS2_PLACEMENT_3D( '', #248, #249, #250 );
#179 = EDGE_LOOP( '', ( #251 ) );
#180 = EDGE_LOOP( '', ( #252 ) );
#181 = AXIS2_PLACEMENT_3D( '', #253, #254, #255 );
#182 = EDGE_LOOP( '', ( #256 ) );
#183 = EDGE_LOOP( '', ( #257 ) );
#184 = AXIS2_PLACEMENT_3D( '', #258, #259, #260 );
#185 = EDGE_LOOP( '', ( #261 ) );
#186 = EDGE_LOOP( '', ( #262 ) );
#187 = AXIS2_PLACEMENT_3D( '', #263, #264, #265 );
#188 = EDGE_LOOP( '', ( #266 ) );
#189 = EDGE_LOOP( '', ( #267 ) );
#190 = AXIS2_PLACEMENT_3D( '', #268, #269, #270 );
#191 = ORIENTED_EDGE( '', *, *, #271, .T. );
#192 = ORIENTED_EDGE( '', *, *, #272, .T. );
#193 = CARTESIAN_POINT( '', ( 0.000000000000000, 0.000000000000000, 7.34763812293426E-015 ) );
#194 = DIRECTION( '', ( -1.00000000000000, 0.000000000000000, 0.000000000000000 ) );
#195 = DIRECTION( '', ( 0.000000000000000, 0.000000000000000, 1.00000000000000 ) );
#196 = ORIENTED_EDGE( '', *, *, #273, .T. );
#197 = ORIENTED_EDGE( '', *, *, #274, .T. );
#198 = CARTESIAN_POINT( '', ( 10.0000000000000, 0.000000000000000, 30.0000000000000 ) );
#199 = DIRECTION( '', ( 1.00000000000000, 0.000000000000000, 0.000000000000000 ) );
#200 = DIRECTION( '', ( 0.000000000000000, 0.000000000000000, -1.00000000000000 ) );
#201 = ORIENTED_EDGE( '', *, *, #275, .F. );
#202 = ORIENTED_EDGE( '', *, *, #276, .T. );
#203 = CARTESIAN_POINT( '', ( 40.0000000000000, 0.000000000000000, 20.9995000000000 ) );
#204 = DIRECTION( '', ( -1.00000000000000, 0.000000000000000, 0.000000000000000 ) );
#205 = DIRECTION( '', ( 0.000000000000000, 0.000000000000000, 1.00000000000000 ) );
#206 = ORIENTED_EDGE( '', *, *, #277, .T. );
#207 = ORIENTED_EDGE( '', *, *, #276, .F. );
#208 = CARTESIAN_POINT( '', ( 95.0000000000000, 0.000000000000000, 7.34763812293426E-015 ) );
#209 = DIRECTION( '', ( 1.00000000000000, 0.000000000000000, 0.000000000000000 ) );
#210 = DIRECTION( '', ( 0.000000000000000, 0.000000000000000, 1.00000000000000 ) );
#211 = ORIENTED_EDGE( '', *, *, #274, .F. );
#212 = ORIENTED_EDGE( '', *, *, #278, .T. );
#213 = CARTESIAN_POINT( '', ( 10.5000000000000, 0.000000000000000, 6.93889390390723E-015 ) );
#214 = DIRECTION( '', ( -1.00000000000000, 0.000000000000000, 2.98353444545281E-018 ) );
#215 = DIRECTION( '', ( 2.98353444545281E-018, 0.000000000000000, 1.00000000000000 ) );
#216 = ORIENTED_EDGE( '', *, *, #279, .F. );
#217 = ORIENTED_EDGE( '', *, *, #280, .F. );
#218 = CARTESIAN_POINT( '', ( 174.500000000000, 0.000000000000000, 7.34763812293426E-015 ) );
#219 = DIRECTION( '', ( -1.00000000000000, 0.000000000000000, 0.000000000000000 ) );
#220 = DIRECTION( '', ( 0.000000000000000, 0.000000000000000, 1.00000000000000 ) );
#221 = ORIENTED_EDGE( '', *, *, #281, .T. );
#222 = ORIENTED_EDGE( '', *, *, #275, .T. );
#223 = CARTESIAN_POINT( '', ( 95.0000000000000, 0.000000000000000, 7.34763812293426E-015 ) );
#224 = DIRECTION( '', ( 1.00000000000000, 0.000000000000000, 0.000000000000000 ) );
#225 = DIRECTION( '', ( 0.000000000000000, 0.000000000000000, 1.00000000000000 ) );
#226 = ORIENTED_EDGE( '', *, *, #278, .F. );
#227 = ORIENTED_EDGE( '', *, *, #282, .T. );
#228 = CARTESIAN_POINT( '', ( 95.0000000000000, 0.000000000000000, 7.34763812293426E-015 ) );
#229 = DIRECTION( '', ( 1.00000000000000, 0.000000000000000, 0.000000000000000 ) );
#230 = DIRECTION( '', ( 0.000000000000000, 0.000000000000000, 1.00000000000000 ) );
#231 = ORIENTED_EDGE( '', *, *, #283, .T. );
#232 = ORIENTED_EDGE( '', *, *, #284, .T. );
#233 = CARTESIAN_POINT( '', ( 95.0000000000000, 0.000000000000000, 7.34763812293426E-015 ) );
#234 = DIRECTION( '', ( 1.00000000000000, 0.000000000000000, 0.000000000000000 ) );
#235 = DIRECTION( '', ( 0.000000000000000, 0.000000000000000, 1.00000000000000 ) );
#236 = ORIENTED_EDGE( '', *, *, #285, .T. );
#237 = ORIENTED_EDGE( '', *, *, #279, .T. );
#238 = CARTESIAN_POINT( '', ( 175.000000000000, 0.000000000000000, 26.9995000000000 ) );
#239 = DIRECTION( '', ( 1.00000000000000, 0.000000000000000, 0.000000000000000 ) );
#240 = DIRECTION( '', ( 0.000000000000000, 0.000000000000000, -1.00000000000000 ) );
#241 = ORIENTED_EDGE( '', *, *, #280, .T. );
#242 = ORIENTED_EDGE( '', *, *, #286, .F. );
#243 = CARTESIAN_POINT( '', ( 95.0000000000000, 0.000000000000000, 7.34763812293426E-015 ) );
#244 = DIRECTION( '', ( 1.00000000000000, 0.000000000000000, 0.000000000000000 ) );
#245 = DIRECTION( '', ( 0.000000000000000, 0.000000000000000, 1.00000000000000 ) );
#246 = ORIENTED_EDGE( '', *, *, #286, .T. );
#247 = ORIENTED_EDGE( '', *, *, #282, .F. );
#248 = CARTESIAN_POINT( '', ( 171.000000000000, 0.000000000000000, 27.0000000000000 ) );
#249 = DIRECTION( '', ( 1.00000000000000, 0.000000000000000, 0.000000000000000 ) );
#250 = DIRECTION( '', ( 0.000000000000000, 0.000000000000000, -1.00000000000000 ) );
#251 = ORIENTED_EDGE( '', *, *, #273, .F. );
#252 = ORIENTED_EDGE( '', *, *, #283, .F. );
#253 = CARTESIAN_POINT( '', ( 9.49999999999999, 0.000000000000000, 7.34763812293426E-015 ) );
#254 = DIRECTION( '', ( -1.00000000000000, 0.000000000000000, 0.000000000000000 ) );
#255 = DIRECTION( '', ( 0.000000000000000, 0.000000000000000, 1.00000000000000 ) );
#256 = ORIENTED_EDGE( '', *, *, #284, .F. );
#257 = ORIENTED_EDGE( '', *, *, #272, .F. );
#258 = CARTESIAN_POINT( '', ( 0.000000000000000, 0.000000000000000, 7.34763812293426E-015 ) );
#259 = DIRECTION( '', ( 1.00000000000000, 0.000000000000000, 0.000000000000000 ) );
#260 = DIRECTION( '', ( 0.000000000000000, 0.000000000000000, -1.00000000000000 ) );
#261 = ORIENTED_EDGE( '', *, *, #271, .F. );
#262 = ORIENTED_EDGE( '', *, *, #277, .F. );
#263 = CARTESIAN_POINT( '', ( 0.200000000000006, 0.000000000000000, 7.34763812293426E-015 ) );
#264 = DIRECTION( '', ( -1.00000000000000, 0.000000000000000, 0.000000000000000 ) );
#265 = DIRECTION( '', ( 0.000000000000000, 0.000000000000000, 1.00000000000000 ) );
#266 = ORIENTED_EDGE( '', *, *, #281, .F. );
#267 = ORIENTED_EDGE( '', *, *, #285, .F. );
#268 = CARTESIAN_POINT( '', ( 175.000000000000, 0.000000000000000, 7.34763812293426E-015 ) );
#269 = DIRECTION( '', ( 1.00000000000000, 0.000000000000000, 0.000000000000000 ) );
#270 = DIRECTION( '', ( 0.000000000000000, 0.000000000000000, -1.00000000000000 ) );
#271 = EDGE_CURVE( '', #287, #287, #288, .F. );
#272 = EDGE_CURVE( '', #289, #289, #290, .T. );
#273 = EDGE_CURVE( '', #291, #291, #292, .T. );
#274 = EDGE_CURVE( '', #293, #293, #294, .T. );
#275 = EDGE_CURVE( '', #295, #295, #296, .T. );
#276 = EDGE_CURVE( '', #297, #297, #298, .T. );
#277 = EDGE_CURVE( '', #299, #299, #300, .T. );
#278 = EDGE_CURVE( '', #301, #301, #302, .T. );
#279 = EDGE_CURVE( '', #303, #303, #304, .T. );
#280 = EDGE_CURVE( '', #305, #305, #306, .F. );
#281 = EDGE_CURVE( '', #307, #307, #308, .T. );
#282 = EDGE_CURVE( '', #309, #309, #310, .T. );
#283 = EDGE_CURVE( '', #311, #311, #312, .F. );
#284 = EDGE_CURVE( '', #313, #313, #314, .F. );
#285 = EDGE_CURVE( '', #315, #315, #316, .F. );
#286 = EDGE_CURVE( '', #317, #317, #318, .T. );
#287 = VERTEX_POINT( '', #319 );
#288 = CIRCLE( '', #320, 21.1995000000000 );
#289 = VERTEX_POINT( '', #321 );
#290 = CIRCLE( '', #322, 29.5000000000000 );
#291 = VERTEX_POINT( '', #323 );
#292 = CIRCLE( '', #324, 29.5000000000000 );
#293 = VERTEX_POINT( '', #325 );
#294 = CIRCLE( '', #326, 27.0000000000000 );
#295 = VERTEX_POINT( '', #327 );
#296 = CIRCLE( '', #328, 21.0000000000000 );
#297 = VERTEX_POINT( '', #329 );
#298 = CIRCLE( '', #330, 20.9995000000000 );
#299 = VERTEX_POINT( '', #331 );
#300 = CIRCLE( '', #332, 20.9995000000000 );
#301 = VERTEX_POINT( '', #333 );
#302 = CIRCLE( '', #334, 27.0000000000000 );
#303 = VERTEX_POINT( '', #335 );
#304 = CIRCLE( '', #336, 26.4995000000000 );
#305 = VERTEX_POINT( '', #337 );
#306 = CIRCLE( '', #338, 26.9995000000000 );
#307 = VERTEX_POINT( '', #339 );
#308 = CIRCLE( '', #340, 21.0000000000000 );
#309 = VERTEX_POINT( '', #341 );
#310 = CIRCLE( '', #342, 27.0000000000000 );
#311 = VERTEX_POINT( '', #343 );
#312 = CIRCLE( '', #344, 30.0000000000000 );
#313 = VERTEX_POINT( '', #345 );
#314 = CIRCLE( '', #346, 30.0000000000000 );
#315 = VERTEX_POINT( '', #347 );
#316 = CIRCLE( '', #348, 21.2000000000000 );
#317 = VERTEX_POINT( '', #349 );
#318 = CIRCLE( '', #350, 26.9995000000000 );
#319 = CARTESIAN_POINT( '', ( 0.000000000000000, 0.000000000000000, 21.1995000000000 ) );
#320 = AXIS2_PLACEMENT_3D( '', #351, #352, #353 );
#321 = CARTESIAN_POINT( '', ( 0.000000000000000, 0.000000000000000, 29.5000000000000 ) );
#322 = AXIS2_PLACEMENT_3D( '', #354, #355, #356 );
#323 = CARTESIAN_POINT( '', ( 10.0000000000000, 0.000000000000000, -29.5000000000000 ) );
#324 = AXIS2_PLACEMENT_3D( '', #357, #358, #359 );
#325 = CARTESIAN_POINT( '', ( 9.99999999999999, 0.000000000000000, 27.0000000000000 ) );
#326 = AXIS2_PLACEMENT_3D( '', #360, #361, #362 );
#327 = CARTESIAN_POINT( '', ( 40.0000000000000, 0.000000000000000, 21.0000000000000 ) );
#328 = AXIS2_PLACEMENT_3D( '', #363, #364, #365 );
#329 = CARTESIAN_POINT( '', ( 40.0000000000000, 0.000000000000000, 20.9995000000000 ) );
#330 = AXIS2_PLACEMENT_3D( '', #366, #367, #368 );
#331 = CARTESIAN_POINT( '', ( 0.200000000000006, 0.000000000000000, 20.9995000000000 ) );
#332 = AXIS2_PLACEMENT_3D( '', #369, #370, #371 );
#333 = CARTESIAN_POINT( '', ( 11.0000000000000, 0.000000000000000, 27.0000000000000 ) );
#334 = AXIS2_PLACEMENT_3D( '', #372, #373, #374 );
#335 = CARTESIAN_POINT( '', ( 175.000000000000, 0.000000000000000, -26.4995000000000 ) );
#336 = AXIS2_PLACEMENT_3D( '', #375, #376, #377 );
#337 = CARTESIAN_POINT( '', ( 174.500000000000, 0.000000000000000, -26.9995000000000 ) );
#338 = AXIS2_PLACEMENT_3D( '', #378, #379, #380 );
#339 = CARTESIAN_POINT( '', ( 174.800000000000, 0.000000000000000, -21.0000000000000 ) );
#340 = AXIS2_PLACEMENT_3D( '', #381, #382, #383 );
#341 = CARTESIAN_POINT( '', ( 171.000000000000, 0.000000000000000, 27.0000000000000 ) );
#342 = AXIS2_PLACEMENT_3D( '', #384, #385, #386 );
#343 = CARTESIAN_POINT( '', ( 9.49999999999999, 0.000000000000000, -30.0000000000000 ) );
#344 = AXIS2_PLACEMENT_3D( '', #387, #388, #389 );
#345 = CARTESIAN_POINT( '', ( 0.500000000000000, 0.000000000000000, 30.0000000000000 ) );
#346 = AXIS2_PLACEMENT_3D( '', #390, #391, #392 );
#347 = CARTESIAN_POINT( '', ( 175.000000000000, 0.000000000000000, -21.2000000000000 ) );
#348 = AXIS2_PLACEMENT_3D( '', #393, #394, #395 );
#349 = CARTESIAN_POINT( '', ( 171.000000000000, 0.000000000000000, 26.9995000000000 ) );
#350 = AXIS2_PLACEMENT_3D( '', #396, #397, #398 );
#351 = CARTESIAN_POINT( '', ( 0.000000000000000, 0.000000000000000, 7.34763812293426E-015 ) );
#352 = DIRECTION( '', ( -1.00000000000000, 0.000000000000000, 0.000000000000000 ) );
#353 = DIRECTION( '', ( 0.000000000000000, 0.000000000000000, 1.00000000000000 ) );
#354 = CARTESIAN_POINT( '', ( 0.000000000000000, 0.000000000000000, 7.34763812293426E-015 ) );
#355 = DIRECTION( '', ( -1.00000000000000, 0.000000000000000, 0.000000000000000 ) );
#356 = DIRECTION( '', ( 0.000000000000000, 0.000000000000000, 1.00000000000000 ) );
#357 = CARTESIAN_POINT( '', ( 10.0000000000000, 0.000000000000000, 7.34763812293426E-015 ) );
#358 = DIRECTION( '', ( 1.00000000000000, 0.000000000000000, 0.000000000000000 ) );
#359 = DIRECTION( '', ( 0.000000000000000, 0.000000000000000, -1.00000000000000 ) );
#360 = CARTESIAN_POINT( '', ( 9.99999999999999, 0.000000000000000, 7.34763812293426E-015 ) );
#361 = DIRECTION( '', ( -1.00000000000000, 0.000000000000000, 0.000000000000000 ) );
#362 = DIRECTION( '', ( 0.000000000000000, 0.000000000000000, 1.00000000000000 ) );
#363 = CARTESIAN_POINT( '', ( 40.0000000000000, 0.000000000000000, 7.34763812293426E-015 ) );
#364 = DIRECTION( '', ( -1.00000000000000, 0.000000000000000, 0.000000000000000 ) );
#365 = DIRECTION( '', ( 0.000000000000000, 0.000000000000000, 1.00000000000000 ) );
#366 = CARTESIAN_POINT( '', ( 40.0000000000000, 0.000000000000000, 7.34763812293426E-015 ) );
#367 = DIRECTION( '', ( -1.00000000000000, 0.000000000000000, 0.000000000000000 ) );
#368 = DIRECTION( '', ( 0.000000000000000, 0.000000000000000, 1.00000000000000 ) );
#369 = CARTESIAN_POINT( '', ( 0.200000000000006, 0.000000000000000, 7.34763812293426E-015 ) );
#370 = DIRECTION( '', ( -1.00000000000000, 0.000000000000000, 0.000000000000000 ) );
#371 = DIRECTION( '', ( 0.000000000000000, 0.000000000000000, 1.00000000000000 ) );
#372 = CARTESIAN_POINT( '', ( 11.0000000000000, 0.000000000000000, 6.93740213668450E-015 ) );
#373 = DIRECTION( '', ( -1.00000000000000, 0.000000000000000, 2.98353444545281E-018 ) );
#374 = DIRECTION( '', ( 2.98353444545281E-018, 0.000000000000000, 1.00000000000000 ) );
#375 = CARTESIAN_POINT( '', ( 175.000000000000, 0.000000000000000, 7.34763812293426E-015 ) );
#376 = DIRECTION( '', ( 1.00000000000000, 0.000000000000000, 0.000000000000000 ) );
#377 = DIRECTION( '', ( 0.000000000000000, 0.000000000000000, -1.00000000000000 ) );
#378 = CARTESIAN_POINT( '', ( 174.500000000000, 0.000000000000000, 7.34763812293426E-015 ) );
#379 = DIRECTION( '', ( 1.00000000000000, 0.000000000000000, 0.000000000000000 ) );
#380 = DIRECTION( '', ( 0.000000000000000, 0.000000000000000, -1.00000000000000 ) );
#381 = CARTESIAN_POINT( '', ( 174.800000000000, 0.000000000000000, 7.34763812293426E-015 ) );
#382 = DIRECTION( '', ( 1.00000000000000, 0.000000000000000, 0.000000000000000 ) );
#383 = DIRECTION( '', ( 0.000000000000000, 0.000000000000000, -1.00000000000000 ) );
#384 = CARTESIAN_POINT( '', ( 171.000000000000, 0.000000000000000, 7.34763812293426E-015 ) );
#385 = DIRECTION( '', ( -1.00000000000000, 0.000000000000000, 0.000000000000000 ) );
#386 = DIRECTION( '', ( 0.000000000000000, 0.000000000000000, 1.00000000000000 ) );
#387 = CARTESIAN_POINT( '', ( 9.49999999999999, 0.000000000000000, 7.34763812293426E-015 ) );
#388 = DIRECTION( '', ( 1.00000000000000, 0.000000000000000, 0.000000000000000 ) );
#389 = DIRECTION( '', ( 0.000000000000000, 0.000000000000000, -1.00000000000000 ) );
#390 = CARTESIAN_POINT( '', ( 0.500000000000000, 0.000000000000000, 7.34763812293426E-015 ) );
#391 = DIRECTION( '', ( -1.00000000000000, 0.000000000000000, 0.000000000000000 ) );
#392 = DIRECTION( '', ( 0.000000000000000, 0.000000000000000, 1.00000000000000 ) );
#393 = CARTESIAN_POINT( '', ( 175.000000000000, 0.000000000000000, 7.34763812293426E-015 ) );
#394 = DIRECTION( '', ( 1.00000000000000, 0.000000000000000, 0.000000000000000 ) );
#395 = DIRECTION( '', ( 0.000000000000000, 0.000000000000000, -1.00000000000000 ) );
#396 = CARTESIAN_POINT( '', ( 171.000000000000, 0.000000000000000, 7.34763812293426E-015 ) );
#397 = DIRECTION( '', ( -1.00000000000000, 0.000000000000000, 0.000000000000000 ) );
#398 = DIRECTION( '', ( 0.000000000000000, 0.000000000000000, 1.00000000000000 ) );
ENDSEC;
END-ISO-10303-21;
