ISO-10303-21;
HEADER;
FILE_DESCRIPTION( ( 'Unknown' ), '1' );
FILE_NAME( 'C:/Documents and Settings/BEATRIZ/Escritorio/ORYMO/COMPONENTES/CASQUILLOS/CASQUILLOS CVS/CVS_9x21/CVS_9x21.stp', 'Unknown', ( 'Unknown' ), ( 'Unknown' ), 'XStep 1.0', 'Unknown', ' ' );
FILE_SCHEMA( ( 'CONFIG_CONTROL_DESIGN' ) );
ENDSEC;
DATA;
#1 = DESIGN_CONTEXT( '', #27, 'design' );
#2 = APPLICATION_PROTOCOL_DEFINITION( 'INTERNATIONAL STANDARD', 'config_control_design', 1994, #27 );
#3 = PRODUCT_CATEGORY_RELATIONSHIP( 'NONE', 'NONE', #28, #29 );
#4 = DATE_AND_TIME( #30, #31 );
#5 = DATE_TIME_ROLE( 'creation_date' );
#6 = DATE_TIME_ROLE( 'classification_date' );
#7 = PERSON_AND_ORGANIZATION_ROLE( 'creator' );
#8 = PERSON_AND_ORGANIZATION_ROLE( 'design_supplier' );
#9 = PERSON_AND_ORGANIZATION_ROLE( 'classification_officer' );
#10 = PERSON_AND_ORGANIZATION_ROLE( 'design_owner' );
#11 = APPROVAL_PERSON_ORGANIZATION( #32, #33, #34 );
#12 = APPROVAL_DATE_TIME( #4, #33 );
#13 = CC_DESIGN_APPROVAL( #33, ( #35, #36, #37 ) );
#14 = CC_DESIGN_DATE_AND_TIME_ASSIGNMENT( #4, #5, ( #37 ) );
#15 = CC_DESIGN_DATE_AND_TIME_ASSIGNMENT( #4, #6, ( #35 ) );
#16 = CC_DESIGN_PERSON_AND_ORGANIZATION_ASSIGNMENT( #32, #10, ( #38 ) );
#17 = CC_DESIGN_PERSON_AND_ORGANIZATION_ASSIGNMENT( #32, #7, ( #37 ) );
#18 = CC_DESIGN_PERSON_AND_ORGANIZATION_ASSIGNMENT( #32, #7, ( #36 ) );
#19 = CC_DESIGN_PERSON_AND_ORGANIZATION_ASSIGNMENT( #32, #8, ( #36 ) );
#20 = CC_DESIGN_SECURITY_CLASSIFICATION( #35, ( #36 ) );
#21 = CC_DESIGN_PERSON_AND_ORGANIZATION_ASSIGNMENT( #32, #9, ( #35 ) );
#22 = SHAPE_DEFINITION_REPRESENTATION( #39, #40 );
#23 =  ( GEOMETRIC_REPRESENTATION_CONTEXT( 3 )GLOBAL_UNCERTAINTY_ASSIGNED_CONTEXT( ( #43 ) )GLOBAL_UNIT_ASSIGNED_CONTEXT( ( #45, #46, #47 ) )REPRESENTATION_CONTEXT( 'NONE', 'WORKSPACE' ) );
#27 = APPLICATION_CONTEXT( 'CONFIGURATION CONTROLLED 3D DESIGNS OF MECHANICAL PARTS AND ASSEMBLIES' );
#28 = PRODUCT_CATEGORY( 'part', 'NONE' );
#29 = PRODUCT_RELATED_PRODUCT_CATEGORY( 'detail', ' ', ( #38 ) );
#30 = CALENDAR_DATE( 2004, 23, 8 );
#31 = LOCAL_TIME( 10, 31, 40.0000000000000, #49 );
#32 = PERSON_AND_ORGANIZATION( #50, #51 );
#33 = APPROVAL( #52, 'SOLID MODEL' );
#34 = APPROVAL_ROLE( 'APPROVED' );
#35 = SECURITY_CLASSIFICATION( '', '', #53 );
#36 = PRODUCT_DEFINITION_FORMATION_WITH_SPECIFIED_SOURCE( ' ', 'NONE', #38, .NOT_KNOWN. );
#37 = PRODUCT_DEFINITION( 'NONE', 'NONE', #36, #1 );
#38 = PRODUCT( '1', '1', 'PART-1-DESC', ( #54 ) );
#39 = PRODUCT_DEFINITION_SHAPE( 'NONE', 'NONE', #37 );
#40 = ADVANCED_BREP_SHAPE_REPRESENTATION( '1', ( #55, #56 ), #23 );
#43 = UNCERTAINTY_MEASURE_WITH_UNIT( LENGTH_MEASURE( 0.00100000000000000 ), #45, '', '' );
#45 =  ( CONVERSION_BASED_UNIT( 'MILLIMETRE', #59 )LENGTH_UNIT(  )NAMED_UNIT( #62 ) );
#46 =  ( CONVERSION_BASED_UNIT( 'RADIAN', #64 )NAMED_UNIT( #66 )PLANE_ANGLE_UNIT(  ) );
#47 =  ( NAMED_UNIT( #66 )SOLID_ANGLE_UNIT(  )SI_UNIT( $, .STERADIAN. ) );
#49 = COORDINATED_UNIVERSAL_TIME_OFFSET( 1, 0, .AHEAD. );
#50 = PERSON( '', 'UNSPECIFIED', $, $, $, $ );
#51 = ORGANIZATION( 'UNSPECIFIED', 'UNSPECIFIED', 'UNSPECIFIED' );
#52 = APPROVAL_STATUS( 'approved' );
#53 = SECURITY_CLASSIFICATION_LEVEL( 'unclassified' );
#54 = MECHANICAL_CONTEXT( '', #27, 'mechanical' );
#55 = MANIFOLD_SOLID_BREP( '1', #71 );
#56 = AXIS2_PLACEMENT_3D( '', #72, #73, #74 );
#59 = LENGTH_MEASURE_WITH_UNIT( LENGTH_MEASURE( 1.00000000000000 ), #75 );
#62 = DIMENSIONAL_EXPONENTS( 1.00000000000000, 0.000000000000000, 0.000000000000000, 0.000000000000000, 0.000000000000000, 0.000000000000000, 0.000000000000000 );
#64 = PLANE_ANGLE_MEASURE_WITH_UNIT( PLANE_ANGLE_MEASURE( 1.00000000000000 ), #76 );
#66 = DIMENSIONAL_EXPONENTS( 0.000000000000000, 0.000000000000000, 0.000000000000000, 0.000000000000000, 0.000000000000000, 0.000000000000000, 0.000000000000000 );
#71 = CLOSED_SHELL( '', ( #77, #78, #79, #80, #81, #82, #83, #84, #85, #86, #87, #88, #89, #90 ) );
#72 = CARTESIAN_POINT( '', ( 0.000000000000000, 0.000000000000000, 0.000000000000000 ) );
#73 = DIRECTION( '', ( 0.000000000000000, 0.000000000000000, 1.00000000000000 ) );
#74 = DIRECTION( '', ( 1.00000000000000, 0.000000000000000, 0.000000000000000 ) );
#75 =  ( NAMED_UNIT( #62 )LENGTH_UNIT(  )SI_UNIT( .MILLI., .METRE. ) );
#76 =  ( NAMED_UNIT( #66 )PLANE_ANGLE_UNIT(  )SI_UNIT( $, .RADIAN. ) );
#77 = ADVANCED_FACE( '', ( #93, #94 ), #95, .T. );
#78 = ADVANCED_FACE( '', ( #96, #97 ), #98, .T. );
#79 = ADVANCED_FACE( '', ( #99, #100 ), #101, .T. );
#80 = ADVANCED_FACE( '', ( #102, #103 ), #104, .T. );
#81 = ADVANCED_FACE( '', ( #105, #106 ), #107, .T. );
#82 = ADVANCED_FACE( '', ( #108, #109 ), #110, .T. );
#83 = ADVANCED_FACE( '', ( #111, #112 ), #113, .T. );
#84 = ADVANCED_FACE( '', ( #114, #115 ), #116, .F. );
#85 = ADVANCED_FACE( '', ( #117, #118 ), #119, .F. );
#86 = ADVANCED_FACE( '', ( #120, #121 ), #122, .T. );
#87 = ADVANCED_FACE( '', ( #123, #124 ), #125, .T. );
#88 = ADVANCED_FACE( '', ( #126, #127 ), #128, .T. );
#89 = ADVANCED_FACE( '', ( #129, #130 ), #131, .F. );
#90 = ADVANCED_FACE( '', ( #132, #133 ), #134, .F. );
#93 = FACE_BOUND( '', #135, .T. );
#94 = FACE_OUTER_BOUND( '', #136, .T. );
#95 = PLANE( '', #137 );
#96 = FACE_OUTER_BOUND( '', #138, .T. );
#97 = FACE_BOUND( '', #139, .T. );
#98 = PLANE( '', #140 );
#99 = FACE_BOUND( '', #141, .T. );
#100 = FACE_OUTER_BOUND( '', #142, .T. );
#101 = PLANE( '', #143 );
#102 = FACE_OUTER_BOUND( '', #144, .T. );
#103 = FACE_OUTER_BOUND( '', #145, .T. );
#104 = CYLINDRICAL_SURFACE( '', #146, 6.99950000000000 );
#105 = FACE_BOUND( '', #147, .T. );
#106 = FACE_OUTER_BOUND( '', #148, .T. );
#107 = PLANE( '', #149 );
#108 = FACE_OUTER_BOUND( '', #150, .T. );
#109 = FACE_OUTER_BOUND( '', #151, .T. );
#110 = CYLINDRICAL_SURFACE( '', #152, 8.00000000000000 );
#111 = FACE_OUTER_BOUND( '', #153, .T. );
#112 = FACE_OUTER_BOUND( '', #154, .T. );
#113 = CYLINDRICAL_SURFACE( '', #155, 7.00000000000000 );
#114 = FACE_OUTER_BOUND( '', #156, .T. );
#115 = FACE_OUTER_BOUND( '', #157, .T. );
#116 = CYLINDRICAL_SURFACE( '', #158, 4.50000000000000 );
#117 = FACE_OUTER_BOUND( '', #159, .T. );
#118 = FACE_OUTER_BOUND( '', #160, .T. );
#119 = TOROIDAL_SURFACE( '', #161, 7.00000000000000, 0.500000000000000 );
#120 = FACE_BOUND( '', #162, .T. );
#121 = FACE_OUTER_BOUND( '', #163, .T. );
#122 = CONICAL_SURFACE( '', #164, 6.99950000000000, 0.785398163397448 );
#123 = FACE_BOUND( '', #165, .T. );
#124 = FACE_OUTER_BOUND( '', #166, .T. );
#125 = CONICAL_SURFACE( '', #167, 8.00000000000000, 0.785398163397448 );
#126 = FACE_OUTER_BOUND( '', #168, .T. );
#127 = FACE_BOUND( '', #169, .T. );
#128 = CONICAL_SURFACE( '', #170, 7.50000000000000, 0.785398163397448 );
#129 = FACE_BOUND( '', #171, .T. );
#130 = FACE_OUTER_BOUND( '', #172, .T. );
#131 = CONICAL_SURFACE( '', #173, 4.70000000000000, 0.785398163397433 );
#132 = FACE_OUTER_BOUND( '', #174, .T. );
#133 = FACE_BOUND( '', #175, .T. );
#134 = CONICAL_SURFACE( '', #176, 4.50000000000000, 0.785398163397451 );
#135 = EDGE_LOOP( '', ( #177 ) );
#136 = EDGE_LOOP( '', ( #178 ) );
#137 = AXIS2_PLACEMENT_3D( '', #179, #180, #181 );
#138 = EDGE_LOOP( '', ( #182 ) );
#139 = EDGE_LOOP( '', ( #183 ) );
#140 = AXIS2_PLACEMENT_3D( '', #184, #185, #186 );
#141 = EDGE_LOOP( '', ( #187 ) );
#142 = EDGE_LOOP( '', ( #188 ) );
#143 = AXIS2_PLACEMENT_3D( '', #189, #190, #191 );
#144 = EDGE_LOOP( '', ( #192 ) );
#145 = EDGE_LOOP( '', ( #193 ) );
#146 = AXIS2_PLACEMENT_3D( '', #194, #195, #196 );
#147 = EDGE_LOOP( '', ( #197 ) );
#148 = EDGE_LOOP( '', ( #198 ) );
#149 = AXIS2_PLACEMENT_3D( '', #199, #200, #201 );
#150 = EDGE_LOOP( '', ( #202 ) );
#151 = EDGE_LOOP( '', ( #203 ) );
#152 = AXIS2_PLACEMENT_3D( '', #204, #205, #206 );
#153 = EDGE_LOOP( '', ( #207 ) );
#154 = EDGE_LOOP( '', ( #208 ) );
#155 = AXIS2_PLACEMENT_3D( '', #209, #210, #211 );
#156 = EDGE_LOOP( '', ( #212 ) );
#157 = EDGE_LOOP( '', ( #213 ) );
#158 = AXIS2_PLACEMENT_3D( '', #214, #215, #216 );
#159 = EDGE_LOOP( '', ( #217 ) );
#160 = EDGE_LOOP( '', ( #218 ) );
#161 = AXIS2_PLACEMENT_3D( '', #219, #220, #221 );
#162 = EDGE_LOOP( '', ( #222 ) );
#163 = EDGE_LOOP( '', ( #223 ) );
#164 = AXIS2_PLACEMENT_3D( '', #224, #225, #226 );
#165 = EDGE_LOOP( '', ( #227 ) );
#166 = EDGE_LOOP( '', ( #228 ) );
#167 = AXIS2_PLACEMENT_3D( '', #229, #230, #231 );
#168 = EDGE_LOOP( '', ( #232 ) );
#169 = EDGE_LOOP( '', ( #233 ) );
#170 = AXIS2_PLACEMENT_3D( '', #234, #235, #236 );
#171 = EDGE_LOOP( '', ( #237 ) );
#172 = EDGE_LOOP( '', ( #238 ) );
#173 = AXIS2_PLACEMENT_3D( '', #239, #240, #241 );
#174 = EDGE_LOOP( '', ( #242 ) );
#175 = EDGE_LOOP( '', ( #243 ) );
#176 = AXIS2_PLACEMENT_3D( '', #244, #245, #246 );
#177 = ORIENTED_EDGE( '', *, *, #247, .T. );
#178 = ORIENTED_EDGE( '', *, *, #248, .T. );
#179 = CARTESIAN_POINT( '', ( 1.73472347597681E-015, 0.000000000000000, 7.34763812293426E-015 ) );
#180 = DIRECTION( '', ( -1.00000000000000, 0.000000000000000, 0.000000000000000 ) );
#181 = DIRECTION( '', ( 0.000000000000000, 0.000000000000000, 1.00000000000000 ) );
#182 = ORIENTED_EDGE( '', *, *, #249, .T. );
#183 = ORIENTED_EDGE( '', *, *, #250, .T. );
#184 = CARTESIAN_POINT( '', ( 3.00000000000000, 0.000000000000000, 8.00000000000001 ) );
#185 = DIRECTION( '', ( 1.00000000000000, 0.000000000000000, 0.000000000000000 ) );
#186 = DIRECTION( '', ( 0.000000000000000, 0.000000000000000, -1.00000000000000 ) );
#187 = ORIENTED_EDGE( '', *, *, #251, .T. );
#188 = ORIENTED_EDGE( '', *, *, #252, .F. );
#189 = CARTESIAN_POINT( '', ( 17.0000000000000, 0.000000000000000, 7.00000000000001 ) );
#190 = DIRECTION( '', ( 1.00000000000000, 0.000000000000000, 0.000000000000000 ) );
#191 = DIRECTION( '', ( 0.000000000000000, 0.000000000000000, -1.00000000000000 ) );
#192 = ORIENTED_EDGE( '', *, *, #253, .T. );
#193 = ORIENTED_EDGE( '', *, *, #251, .F. );
#194 = CARTESIAN_POINT( '', ( 280.000000000000, 0.000000000000000, 7.34763812293426E-015 ) );
#195 = DIRECTION( '', ( 1.00000000000000, 0.000000000000000, 0.000000000000000 ) );
#196 = DIRECTION( '', ( 0.000000000000000, 0.000000000000000, 1.00000000000000 ) );
#197 = ORIENTED_EDGE( '', *, *, #254, .T. );
#198 = ORIENTED_EDGE( '', *, *, #255, .T. );
#199 = CARTESIAN_POINT( '', ( 21.0000000000000, 0.000000000000000, 6.99950000000001 ) );
#200 = DIRECTION( '', ( 1.00000000000000, 0.000000000000000, 0.000000000000000 ) );
#201 = DIRECTION( '', ( 0.000000000000000, 0.000000000000000, -1.00000000000000 ) );
#202 = ORIENTED_EDGE( '', *, *, #256, .T. );
#203 = ORIENTED_EDGE( '', *, *, #257, .T. );
#204 = CARTESIAN_POINT( '', ( 280.000000000000, 0.000000000000000, 7.34763812293426E-015 ) );
#205 = DIRECTION( '', ( 1.00000000000000, 0.000000000000000, 0.000000000000000 ) );
#206 = DIRECTION( '', ( 0.000000000000000, 0.000000000000000, 1.00000000000000 ) );
#207 = ORIENTED_EDGE( '', *, *, #258, .F. );
#208 = ORIENTED_EDGE( '', *, *, #252, .T. );
#209 = CARTESIAN_POINT( '', ( 280.000000000000, 0.000000000000000, 7.34763812293426E-015 ) );
#210 = DIRECTION( '', ( 1.00000000000000, 0.000000000000000, 0.000000000000000 ) );
#211 = DIRECTION( '', ( 0.000000000000000, 0.000000000000000, 1.00000000000000 ) );
#212 = ORIENTED_EDGE( '', *, *, #259, .T. );
#213 = ORIENTED_EDGE( '', *, *, #260, .T. );
#214 = CARTESIAN_POINT( '', ( 55.0000000000000, 0.000000000000000, 7.34763812293426E-015 ) );
#215 = DIRECTION( '', ( 1.00000000000000, 0.000000000000000, 0.000000000000000 ) );
#216 = DIRECTION( '', ( 0.000000000000000, 0.000000000000000, 1.00000000000000 ) );
#217 = ORIENTED_EDGE( '', *, *, #250, .F. );
#218 = ORIENTED_EDGE( '', *, *, #258, .T. );
#219 = CARTESIAN_POINT( '', ( 3.50000000000000, 0.000000000000000, 6.93889390390723E-015 ) );
#220 = DIRECTION( '', ( -1.00000000000000, 0.000000000000000, 2.98353444545281E-018 ) );
#221 = DIRECTION( '', ( 2.98353444545281E-018, 0.000000000000000, 1.00000000000000 ) );
#222 = ORIENTED_EDGE( '', *, *, #255, .F. );
#223 = ORIENTED_EDGE( '', *, *, #253, .F. );
#224 = CARTESIAN_POINT( '', ( 20.5000000000000, 0.000000000000000, 7.34763812293426E-015 ) );
#225 = DIRECTION( '', ( -1.00000000000000, 0.000000000000000, 0.000000000000000 ) );
#226 = DIRECTION( '', ( 0.000000000000000, 0.000000000000000, 1.00000000000000 ) );
#227 = ORIENTED_EDGE( '', *, *, #249, .F. );
#228 = ORIENTED_EDGE( '', *, *, #256, .F. );
#229 = CARTESIAN_POINT( '', ( 2.50000000000000, 0.000000000000000, 7.34763812293426E-015 ) );
#230 = DIRECTION( '', ( -1.00000000000000, 0.000000000000000, 0.000000000000000 ) );
#231 = DIRECTION( '', ( 0.000000000000000, 0.000000000000000, 1.00000000000000 ) );
#232 = ORIENTED_EDGE( '', *, *, #257, .F. );
#233 = ORIENTED_EDGE( '', *, *, #248, .F. );
#234 = CARTESIAN_POINT( '', ( 0.000000000000000, 0.000000000000000, 7.34763812293426E-015 ) );
#235 = DIRECTION( '', ( 1.00000000000000, 0.000000000000000, 0.000000000000000 ) );
#236 = DIRECTION( '', ( 0.000000000000000, 0.000000000000000, -1.00000000000000 ) );
#237 = ORIENTED_EDGE( '', *, *, #259, .F. );
#238 = ORIENTED_EDGE( '', *, *, #254, .F. );
#239 = CARTESIAN_POINT( '', ( 21.0000000000000, 0.000000000000000, 7.34763812293426E-015 ) );
#240 = DIRECTION( '', ( 1.00000000000000, 0.000000000000000, 0.000000000000000 ) );
#241 = DIRECTION( '', ( 0.000000000000000, 0.000000000000000, -1.00000000000000 ) );
#242 = ORIENTED_EDGE( '', *, *, #247, .F. );
#243 = ORIENTED_EDGE( '', *, *, #260, .F. );
#244 = CARTESIAN_POINT( '', ( 0.199999999999999, 0.000000000000000, 7.34763812293426E-015 ) );
#245 = DIRECTION( '', ( -1.00000000000000, 0.000000000000000, 0.000000000000000 ) );
#246 = DIRECTION( '', ( 0.000000000000000, 0.000000000000000, 1.00000000000000 ) );
#247 = EDGE_CURVE( '', #261, #261, #262, .F. );
#248 = EDGE_CURVE( '', #263, #263, #264, .T. );
#249 = EDGE_CURVE( '', #265, #265, #266, .T. );
#250 = EDGE_CURVE( '', #267, #267, #268, .T. );
#251 = EDGE_CURVE( '', #269, #269, #270, .T. );
#252 = EDGE_CURVE( '', #271, #271, #272, .T. );
#253 = EDGE_CURVE( '', #273, #273, #274, .F. );
#254 = EDGE_CURVE( '', #275, #275, #276, .F. );
#255 = EDGE_CURVE( '', #277, #277, #278, .T. );
#256 = EDGE_CURVE( '', #279, #279, #280, .F. );
#257 = EDGE_CURVE( '', #281, #281, #282, .F. );
#258 = EDGE_CURVE( '', #283, #283, #284, .T. );
#259 = EDGE_CURVE( '', #285, #285, #286, .T. );
#260 = EDGE_CURVE( '', #287, #287, #288, .T. );
#261 = VERTEX_POINT( '', #289 );
#262 = CIRCLE( '', #290, 4.70000000000000 );
#263 = VERTEX_POINT( '', #291 );
#264 = CIRCLE( '', #292, 7.50000000000000 );
#265 = VERTEX_POINT( '', #293 );
#266 = CIRCLE( '', #294, 7.50000000000000 );
#267 = VERTEX_POINT( '', #295 );
#268 = CIRCLE( '', #296, 7.00000000000000 );
#269 = VERTEX_POINT( '', #297 );
#270 = CIRCLE( '', #298, 6.99950000000000 );
#271 = VERTEX_POINT( '', #299 );
#272 = CIRCLE( '', #300, 7.00000000000000 );
#273 = VERTEX_POINT( '', #301 );
#274 = CIRCLE( '', #302, 6.99950000000000 );
#275 = VERTEX_POINT( '', #303 );
#276 = CIRCLE( '', #304, 4.70000000000000 );
#277 = VERTEX_POINT( '', #305 );
#278 = CIRCLE( '', #306, 6.49950000000002 );
#279 = VERTEX_POINT( '', #307 );
#280 = CIRCLE( '', #308, 8.00000000000000 );
#281 = VERTEX_POINT( '', #309 );
#282 = CIRCLE( '', #310, 8.00000000000000 );
#283 = VERTEX_POINT( '', #311 );
#284 = CIRCLE( '', #312, 7.00000000000000 );
#285 = VERTEX_POINT( '', #313 );
#286 = CIRCLE( '', #314, 4.50000000000000 );
#287 = VERTEX_POINT( '', #315 );
#288 = CIRCLE( '', #316, 4.50000000000000 );
#289 = CARTESIAN_POINT( '', ( 1.73472347597681E-015, 0.000000000000000, 4.70000000000001 ) );
#290 = AXIS2_PLACEMENT_3D( '', #317, #318, #319 );
#291 = CARTESIAN_POINT( '', ( 1.73472347597681E-015, 0.000000000000000, 7.50000000000001 ) );
#292 = AXIS2_PLACEMENT_3D( '', #320, #321, #322 );
#293 = CARTESIAN_POINT( '', ( 3.00000000000000, 0.000000000000000, -7.50000000000000 ) );
#294 = AXIS2_PLACEMENT_3D( '', #323, #324, #325 );
#295 = CARTESIAN_POINT( '', ( 3.00000000000000, 0.000000000000000, 7.00000000000001 ) );
#296 = AXIS2_PLACEMENT_3D( '', #326, #327, #328 );
#297 = CARTESIAN_POINT( '', ( 17.0000000000000, 0.000000000000000, 6.99950000000001 ) );
#298 = AXIS2_PLACEMENT_3D( '', #329, #330, #331 );
#299 = CARTESIAN_POINT( '', ( 17.0000000000000, 0.000000000000000, 7.00000000000001 ) );
#300 = AXIS2_PLACEMENT_3D( '', #332, #333, #334 );
#301 = CARTESIAN_POINT( '', ( 20.5000000000000, 0.000000000000000, -6.99949999999999 ) );
#302 = AXIS2_PLACEMENT_3D( '', #335, #336, #337 );
#303 = CARTESIAN_POINT( '', ( 21.0000000000000, 0.000000000000000, -4.69999999999999 ) );
#304 = AXIS2_PLACEMENT_3D( '', #338, #339, #340 );
#305 = CARTESIAN_POINT( '', ( 21.0000000000000, 0.000000000000000, -6.49950000000001 ) );
#306 = AXIS2_PLACEMENT_3D( '', #341, #342, #343 );
#307 = CARTESIAN_POINT( '', ( 2.50000000000000, 0.000000000000000, -7.99999999999999 ) );
#308 = AXIS2_PLACEMENT_3D( '', #344, #345, #346 );
#309 = CARTESIAN_POINT( '', ( 0.500000000000000, 0.000000000000000, 8.00000000000001 ) );
#310 = AXIS2_PLACEMENT_3D( '', #347, #348, #349 );
#311 = CARTESIAN_POINT( '', ( 4.00000000000000, 0.000000000000000, 7.00000000000001 ) );
#312 = AXIS2_PLACEMENT_3D( '', #350, #351, #352 );
#313 = CARTESIAN_POINT( '', ( 20.8000000000000, 0.000000000000000, -4.49999999999999 ) );
#314 = AXIS2_PLACEMENT_3D( '', #353, #354, #355 );
#315 = CARTESIAN_POINT( '', ( 0.199999999999999, 0.000000000000000, 4.50000000000001 ) );
#316 = AXIS2_PLACEMENT_3D( '', #356, #357, #358 );
#317 = CARTESIAN_POINT( '', ( 1.73472347597681E-015, 0.000000000000000, 7.34763812293426E-015 ) );
#318 = DIRECTION( '', ( -1.00000000000000, 0.000000000000000, 0.000000000000000 ) );
#319 = DIRECTION( '', ( 0.000000000000000, 0.000000000000000, 1.00000000000000 ) );
#320 = CARTESIAN_POINT( '', ( 1.73472347597681E-015, 0.000000000000000, 7.34763812293426E-015 ) );
#321 = DIRECTION( '', ( -1.00000000000000, 0.000000000000000, 0.000000000000000 ) );
#322 = DIRECTION( '', ( 0.000000000000000, 0.000000000000000, 1.00000000000000 ) );
#323 = CARTESIAN_POINT( '', ( 3.00000000000000, 0.000000000000000, 7.34763812293426E-015 ) );
#324 = DIRECTION( '', ( 1.00000000000000, 0.000000000000000, 0.000000000000000 ) );
#325 = DIRECTION( '', ( 0.000000000000000, 0.000000000000000, -1.00000000000000 ) );
#326 = CARTESIAN_POINT( '', ( 3.00000000000000, 0.000000000000000, 7.34763812293426E-015 ) );
#327 = DIRECTION( '', ( -1.00000000000000, 0.000000000000000, 0.000000000000000 ) );
#328 = DIRECTION( '', ( 0.000000000000000, 0.000000000000000, 1.00000000000000 ) );
#329 = CARTESIAN_POINT( '', ( 17.0000000000000, 0.000000000000000, 7.34763812293426E-015 ) );
#330 = DIRECTION( '', ( -1.00000000000000, 0.000000000000000, 0.000000000000000 ) );
#331 = DIRECTION( '', ( 0.000000000000000, 0.000000000000000, 1.00000000000000 ) );
#332 = CARTESIAN_POINT( '', ( 17.0000000000000, 0.000000000000000, 7.34763812293426E-015 ) );
#333 = DIRECTION( '', ( -1.00000000000000, 0.000000000000000, 0.000000000000000 ) );
#334 = DIRECTION( '', ( 0.000000000000000, 0.000000000000000, 1.00000000000000 ) );
#335 = CARTESIAN_POINT( '', ( 20.5000000000000, 0.000000000000000, 7.34763812293426E-015 ) );
#336 = DIRECTION( '', ( 1.00000000000000, 0.000000000000000, 0.000000000000000 ) );
#337 = DIRECTION( '', ( 0.000000000000000, 0.000000000000000, -1.00000000000000 ) );
#338 = CARTESIAN_POINT( '', ( 21.0000000000000, 0.000000000000000, 7.34763812293426E-015 ) );
#339 = DIRECTION( '', ( 1.00000000000000, 0.000000000000000, 0.000000000000000 ) );
#340 = DIRECTION( '', ( 0.000000000000000, 0.000000000000000, -1.00000000000000 ) );
#341 = CARTESIAN_POINT( '', ( 21.0000000000000, 0.000000000000000, 7.34763812293426E-015 ) );
#342 = DIRECTION( '', ( 1.00000000000000, 0.000000000000000, 0.000000000000000 ) );
#343 = DIRECTION( '', ( 0.000000000000000, 0.000000000000000, -1.00000000000000 ) );
#344 = CARTESIAN_POINT( '', ( 2.50000000000000, 0.000000000000000, 7.34763812293426E-015 ) );
#345 = DIRECTION( '', ( 1.00000000000000, 0.000000000000000, 0.000000000000000 ) );
#346 = DIRECTION( '', ( 0.000000000000000, 0.000000000000000, -1.00000000000000 ) );
#347 = CARTESIAN_POINT( '', ( 0.500000000000000, 0.000000000000000, 7.34763812293426E-015 ) );
#348 = DIRECTION( '', ( -1.00000000000000, 0.000000000000000, 0.000000000000000 ) );
#349 = DIRECTION( '', ( 0.000000000000000, 0.000000000000000, 1.00000000000000 ) );
#350 = CARTESIAN_POINT( '', ( 4.00000000000000, 0.000000000000000, 6.93740213668450E-015 ) );
#351 = DIRECTION( '', ( -1.00000000000000, 0.000000000000000, 2.98353444545281E-018 ) );
#352 = DIRECTION( '', ( 2.98353444545281E-018, 0.000000000000000, 1.00000000000000 ) );
#353 = CARTESIAN_POINT( '', ( 20.8000000000000, 0.000000000000000, 7.34763812293426E-015 ) );
#354 = DIRECTION( '', ( 1.00000000000000, 0.000000000000000, 0.000000000000000 ) );
#355 = DIRECTION( '', ( 0.000000000000000, 0.000000000000000, -1.00000000000000 ) );
#356 = CARTESIAN_POINT( '', ( 0.199999999999999, 0.000000000000000, 7.34763812293426E-015 ) );
#357 = DIRECTION( '', ( -1.00000000000000, 0.000000000000000, 0.000000000000000 ) );
#358 = DIRECTION( '', ( 0.000000000000000, 0.000000000000000, 1.00000000000000 ) );
ENDSEC;
END-ISO-10303-21;
