ISO-10303-21;
HEADER;
FILE_DESCRIPTION( ( 'Unknown' ), '1' );
FILE_NAME( 'C:/Documents and Settings/BEATRIZ/Escritorio/ORYMO/COMPONENTES/GUIAS/GUIAS G/G_19x140/G_19x140.stp', 'Unknown', ( 'Unknown' ), ( 'Unknown' ), 'XStep 1.0', 'Unknown', ' ' );
FILE_SCHEMA( ( 'CONFIG_CONTROL_DESIGN' ) );
ENDSEC;
DATA;
#1 = DESIGN_CONTEXT( '', #27, 'design' );
#2 = APPLICATION_PROTOCOL_DEFINITION( 'INTERNATIONAL STANDARD', 'config_control_design', 1994, #27 );
#3 = PRODUCT_CATEGORY_RELATIONSHIP( 'NONE', 'NONE', #28, #29 );
#4 = DATE_AND_TIME( #30, #31 );
#5 = DATE_TIME_ROLE( 'creation_date' );
#6 = DATE_TIME_ROLE( 'classification_date' );
#7 = PERSON_AND_ORGANIZATION_ROLE( 'creator' );
#8 = PERSON_AND_ORGANIZATION_ROLE( 'design_supplier' );
#9 = PERSON_AND_ORGANIZATION_ROLE( 'classification_officer' );
#10 = PERSON_AND_ORGANIZATION_ROLE( 'design_owner' );
#11 = APPROVAL_PERSON_ORGANIZATION( #32, #33, #34 );
#12 = APPROVAL_DATE_TIME( #4, #33 );
#13 = CC_DESIGN_APPROVAL( #33, ( #35, #36, #37 ) );
#14 = CC_DESIGN_DATE_AND_TIME_ASSIGNMENT( #4, #5, ( #37 ) );
#15 = CC_DESIGN_DATE_AND_TIME_ASSIGNMENT( #4, #6, ( #35 ) );
#16 = CC_DESIGN_PERSON_AND_ORGANIZATION_ASSIGNMENT( #32, #10, ( #38 ) );
#17 = CC_DESIGN_PERSON_AND_ORGANIZATION_ASSIGNMENT( #32, #7, ( #37 ) );
#18 = CC_DESIGN_PERSON_AND_ORGANIZATION_ASSIGNMENT( #32, #7, ( #36 ) );
#19 = CC_DESIGN_PERSON_AND_ORGANIZATION_ASSIGNMENT( #32, #8, ( #36 ) );
#20 = CC_DESIGN_SECURITY_CLASSIFICATION( #35, ( #36 ) );
#21 = CC_DESIGN_PERSON_AND_ORGANIZATION_ASSIGNMENT( #32, #9, ( #35 ) );
#22 = SHAPE_DEFINITION_REPRESENTATION( #39, #40 );
#23 =  ( GEOMETRIC_REPRESENTATION_CONTEXT( 3 )GLOBAL_UNCERTAINTY_ASSIGNED_CONTEXT( ( #43 ) )GLOBAL_UNIT_ASSIGNED_CONTEXT( ( #45, #46, #47 ) )REPRESENTATION_CONTEXT( 'NONE', 'WORKSPACE' ) );
#27 = APPLICATION_CONTEXT( 'CONFIGURATION CONTROLLED 3D DESIGNS OF MECHANICAL PARTS AND ASSEMBLIES' );
#28 = PRODUCT_CATEGORY( 'part', 'NONE' );
#29 = PRODUCT_RELATED_PRODUCT_CATEGORY( 'detail', ' ', ( #38 ) );
#30 = CALENDAR_DATE( 2004, 19, 8 );
#31 = LOCAL_TIME( 20, 38, 33.0000000000000, #49 );
#32 = PERSON_AND_ORGANIZATION( #50, #51 );
#33 = APPROVAL( #52, 'SOLID MODEL' );
#34 = APPROVAL_ROLE( 'APPROVED' );
#35 = SECURITY_CLASSIFICATION( '', '', #53 );
#36 = PRODUCT_DEFINITION_FORMATION_WITH_SPECIFIED_SOURCE( ' ', 'NONE', #38, .NOT_KNOWN. );
#37 = PRODUCT_DEFINITION( 'NONE', 'NONE', #36, #1 );
#38 = PRODUCT( '1', '1', 'PART-1-DESC', ( #54 ) );
#39 = PRODUCT_DEFINITION_SHAPE( 'NONE', 'NONE', #37 );
#40 = ADVANCED_BREP_SHAPE_REPRESENTATION( '1', ( #55, #56 ), #23 );
#43 = UNCERTAINTY_MEASURE_WITH_UNIT( LENGTH_MEASURE( 0.00100000000000000 ), #45, '', '' );
#45 =  ( CONVERSION_BASED_UNIT( 'MILLIMETRE', #59 )LENGTH_UNIT(  )NAMED_UNIT( #62 ) );
#46 =  ( CONVERSION_BASED_UNIT( 'RADIAN', #64 )NAMED_UNIT( #66 )PLANE_ANGLE_UNIT(  ) );
#47 =  ( NAMED_UNIT( #66 )SOLID_ANGLE_UNIT(  )SI_UNIT( $, .STERADIAN. ) );
#49 = COORDINATED_UNIVERSAL_TIME_OFFSET( 1, 0, .AHEAD. );
#50 = PERSON( '', 'UNSPECIFIED', $, $, $, $ );
#51 = ORGANIZATION( 'UNSPECIFIED', 'UNSPECIFIED', 'UNSPECIFIED' );
#52 = APPROVAL_STATUS( 'approved' );
#53 = SECURITY_CLASSIFICATION_LEVEL( 'unclassified' );
#54 = MECHANICAL_CONTEXT( '', #27, 'mechanical' );
#55 = MANIFOLD_SOLID_BREP( '1', #71 );
#56 = AXIS2_PLACEMENT_3D( '', #72, #73, #74 );
#59 = LENGTH_MEASURE_WITH_UNIT( LENGTH_MEASURE( 1.00000000000000 ), #75 );
#62 = DIMENSIONAL_EXPONENTS( 1.00000000000000, 0.000000000000000, 0.000000000000000, 0.000000000000000, 0.000000000000000, 0.000000000000000, 0.000000000000000 );
#64 = PLANE_ANGLE_MEASURE_WITH_UNIT( PLANE_ANGLE_MEASURE( 1.00000000000000 ), #76 );
#66 = DIMENSIONAL_EXPONENTS( 0.000000000000000, 0.000000000000000, 0.000000000000000, 0.000000000000000, 0.000000000000000, 0.000000000000000, 0.000000000000000 );
#71 = CLOSED_SHELL( '', ( #77, #78, #79, #80, #81, #82, #83, #84, #85, #86, #87, #88, #89, #90, #91 ) );
#72 = CARTESIAN_POINT( '', ( 0.000000000000000, 0.000000000000000, 0.000000000000000 ) );
#73 = DIRECTION( '', ( 0.000000000000000, 0.000000000000000, 1.00000000000000 ) );
#74 = DIRECTION( '', ( 1.00000000000000, 0.000000000000000, 0.000000000000000 ) );
#75 =  ( NAMED_UNIT( #62 )LENGTH_UNIT(  )SI_UNIT( .MILLI., .METRE. ) );
#76 =  ( NAMED_UNIT( #66 )PLANE_ANGLE_UNIT(  )SI_UNIT( $, .RADIAN. ) );
#77 = ADVANCED_FACE( '', ( #94, #95 ), #96, .T. );
#78 = ADVANCED_FACE( '', ( #97, #98 ), #99, .T. );
#79 = ADVANCED_FACE( '', ( #100, #101 ), #102, .T. );
#80 = ADVANCED_FACE( '', ( #103 ), #104, .T. );
#81 = ADVANCED_FACE( '', ( #105, #106 ), #107, .F. );
#82 = ADVANCED_FACE( '', ( #108, #109 ), #110, .T. );
#83 = ADVANCED_FACE( '', ( #111, #112 ), #113, .F. );
#84 = ADVANCED_FACE( '', ( #114, #115 ), #116, .T. );
#85 = ADVANCED_FACE( '', ( #117, #118 ), #119, .T. );
#86 = ADVANCED_FACE( '', ( #120, #121 ), #122, .T. );
#87 = ADVANCED_FACE( '', ( #123, #124 ), #125, .F. );
#88 = ADVANCED_FACE( '', ( #126, #127 ), #128, .T. );
#89 = ADVANCED_FACE( '', ( #129, #130 ), #131, .F. );
#90 = ADVANCED_FACE( '', ( #132 ), #133, .T. );
#91 = ADVANCED_FACE( '', ( #134, #135 ), #136, .T. );
#94 = FACE_OUTER_BOUND( '', #137, .T. );
#95 = FACE_OUTER_BOUND( '', #138, .T. );
#96 = CYLINDRICAL_SURFACE( '', #139, 8.00000000000000 );
#97 = FACE_OUTER_BOUND( '', #140, .T. );
#98 = FACE_BOUND( '', #141, .T. );
#99 = PLANE( '', #142 );
#100 = FACE_BOUND( '', #143, .T. );
#101 = FACE_OUTER_BOUND( '', #144, .T. );
#102 = CONICAL_SURFACE( '', #145, 8.00000000000000, 0.261799387799149 );
#103 = FACE_OUTER_BOUND( '', #146, .T. );
#104 = PLANE( '', #147 );
#105 = FACE_OUTER_BOUND( '', #148, .T. );
#106 = FACE_OUTER_BOUND( '', #149, .T. );
#107 = TOROIDAL_SURFACE( '', #150, 8.00000000000000, 0.500000000000000 );
#108 = FACE_OUTER_BOUND( '', #151, .T. );
#109 = FACE_OUTER_BOUND( '', #152, .T. );
#110 = CYLINDRICAL_SURFACE( '', #153, 8.00000000000000 );
#111 = FACE_OUTER_BOUND( '', #154, .T. );
#112 = FACE_OUTER_BOUND( '', #155, .T. );
#113 = TOROIDAL_SURFACE( '', #156, 8.00000000000000, 0.500000000000000 );
#114 = FACE_OUTER_BOUND( '', #157, .T. );
#115 = FACE_OUTER_BOUND( '', #158, .T. );
#116 = CYLINDRICAL_SURFACE( '', #159, 8.00000000000000 );
#117 = FACE_OUTER_BOUND( '', #160, .T. );
#118 = FACE_OUTER_BOUND( '', #161, .T. );
#119 = CYLINDRICAL_SURFACE( '', #162, 8.00000000000000 );
#120 = FACE_BOUND( '', #163, .T. );
#121 = FACE_OUTER_BOUND( '', #164, .T. );
#122 = CONICAL_SURFACE( '', #165, 9.50000000000000, 0.785398163397448 );
#123 = FACE_OUTER_BOUND( '', #166, .T. );
#124 = FACE_OUTER_BOUND( '', #167, .T. );
#125 = TOROIDAL_SURFACE( '', #168, 8.00000000000000, 0.500000000000000 );
#126 = FACE_OUTER_BOUND( '', #169, .T. );
#127 = FACE_BOUND( '', #170, .T. );
#128 = CONICAL_SURFACE( '', #171, 9.00000000000000, 0.785398163397448 );
#129 = FACE_OUTER_BOUND( '', #172, .T. );
#130 = FACE_OUTER_BOUND( '', #173, .T. );
#131 = TOROIDAL_SURFACE( '', #174, 8.00000000000000, 0.500000000000000 );
#132 = FACE_OUTER_BOUND( '', #175, .T. );
#133 = PLANE( '', #176 );
#134 = FACE_OUTER_BOUND( '', #177, .T. );
#135 = FACE_OUTER_BOUND( '', #178, .T. );
#136 = CYLINDRICAL_SURFACE( '', #179, 9.50000000000000 );
#137 = EDGE_LOOP( '', ( #180 ) );
#138 = EDGE_LOOP( '', ( #181 ) );
#139 = AXIS2_PLACEMENT_3D( '', #182, #183, #184 );
#140 = EDGE_LOOP( '', ( #185 ) );
#141 = EDGE_LOOP( '', ( #186 ) );
#142 = AXIS2_PLACEMENT_3D( '', #187, #188, #189 );
#143 = EDGE_LOOP( '', ( #190 ) );
#144 = EDGE_LOOP( '', ( #191 ) );
#145 = AXIS2_PLACEMENT_3D( '', #192, #193, #194 );
#146 = EDGE_LOOP( '', ( #195 ) );
#147 = AXIS2_PLACEMENT_3D( '', #196, #197, #198 );
#148 = EDGE_LOOP( '', ( #199 ) );
#149 = EDGE_LOOP( '', ( #200 ) );
#150 = AXIS2_PLACEMENT_3D( '', #201, #202, #203 );
#151 = EDGE_LOOP( '', ( #204 ) );
#152 = EDGE_LOOP( '', ( #205 ) );
#153 = AXIS2_PLACEMENT_3D( '', #206, #207, #208 );
#154 = EDGE_LOOP( '', ( #209 ) );
#155 = EDGE_LOOP( '', ( #210 ) );
#156 = AXIS2_PLACEMENT_3D( '', #211, #212, #213 );
#157 = EDGE_LOOP( '', ( #214 ) );
#158 = EDGE_LOOP( '', ( #215 ) );
#159 = AXIS2_PLACEMENT_3D( '', #216, #217, #218 );
#160 = EDGE_LOOP( '', ( #219 ) );
#161 = EDGE_LOOP( '', ( #220 ) );
#162 = AXIS2_PLACEMENT_3D( '', #221, #222, #223 );
#163 = EDGE_LOOP( '', ( #224 ) );
#164 = EDGE_LOOP( '', ( #225 ) );
#165 = AXIS2_PLACEMENT_3D( '', #226, #227, #228 );
#166 = EDGE_LOOP( '', ( #229 ) );
#167 = EDGE_LOOP( '', ( #230 ) );
#168 = AXIS2_PLACEMENT_3D( '', #231, #232, #233 );
#169 = EDGE_LOOP( '', ( #234 ) );
#170 = EDGE_LOOP( '', ( #235 ) );
#171 = AXIS2_PLACEMENT_3D( '', #236, #237, #238 );
#172 = EDGE_LOOP( '', ( #239 ) );
#173 = EDGE_LOOP( '', ( #240 ) );
#174 = AXIS2_PLACEMENT_3D( '', #241, #242, #243 );
#175 = EDGE_LOOP( '', ( #244 ) );
#176 = AXIS2_PLACEMENT_3D( '', #245, #246, #247 );
#177 = EDGE_LOOP( '', ( #248 ) );
#178 = EDGE_LOOP( '', ( #249 ) );
#179 = AXIS2_PLACEMENT_3D( '', #250, #251, #252 );
#180 = ORIENTED_EDGE( '', *, *, #253, .F. );
#181 = ORIENTED_EDGE( '', *, *, #254, .F. );
#182 = CARTESIAN_POINT( '', ( 77.0000000000001, 0.000000000000000, 6.93889390390723E-015 ) );
#183 = DIRECTION( '', ( 1.00000000000000, 0.000000000000000, -5.30836648087057E-018 ) );
#184 = DIRECTION( '', ( 5.30836648087057E-018, 0.000000000000000, 1.00000000000000 ) );
#185 = ORIENTED_EDGE( '', *, *, #255, .T. );
#186 = ORIENTED_EDGE( '', *, *, #256, .T. );
#187 = CARTESIAN_POINT( '', ( 6.00000000000000, 0.000000000000000, 9.50000000000001 ) );
#188 = DIRECTION( '', ( 1.00000000000000, 0.000000000000000, -5.30836648087057E-018 ) );
#189 = DIRECTION( '', ( -5.30836648087057E-018, 0.000000000000000, -1.00000000000000 ) );
#190 = ORIENTED_EDGE( '', *, *, #257, .T. );
#191 = ORIENTED_EDGE( '', *, *, #258, .F. );
#192 = CARTESIAN_POINT( '', ( 135.000000000000, 0.000000000000000, 6.63100864801674E-015 ) );
#193 = DIRECTION( '', ( -1.00000000000000, 0.000000000000000, 5.30836648087057E-018 ) );
#194 = DIRECTION( '', ( 5.30836648087057E-018, 0.000000000000000, 1.00000000000000 ) );
#195 = ORIENTED_EDGE( '', *, *, #257, .F. );
#196 = CARTESIAN_POINT( '', ( 140.000000000000, 0.000000000000000, 6.66025403784439 ) );
#197 = DIRECTION( '', ( 1.00000000000000, 0.000000000000000, -5.30836648087057E-018 ) );
#198 = DIRECTION( '', ( -5.30836648087057E-018, 0.000000000000000, -1.00000000000000 ) );
#199 = ORIENTED_EDGE( '', *, *, #253, .T. );
#200 = ORIENTED_EDGE( '', *, *, #259, .T. );
#201 = CARTESIAN_POINT( '', ( 130.000000000000, 0.000000000000000, 6.93889390390723E-015 ) );
#202 = DIRECTION( '', ( -1.00000000000000, 0.000000000000000, 2.98353444545281E-018 ) );
#203 = DIRECTION( '', ( 2.98353444545281E-018, 0.000000000000000, 1.00000000000000 ) );
#204 = ORIENTED_EDGE( '', *, *, #259, .F. );
#205 = ORIENTED_EDGE( '', *, *, #258, .T. );
#206 = CARTESIAN_POINT( '', ( 77.0000000000001, 0.000000000000000, 6.93889390390723E-015 ) );
#207 = DIRECTION( '', ( 1.00000000000000, 0.000000000000000, -5.30836648087057E-018 ) );
#208 = DIRECTION( '', ( 5.30836648087057E-018, 0.000000000000000, 1.00000000000000 ) );
#209 = ORIENTED_EDGE( '', *, *, #260, .T. );
#210 = ORIENTED_EDGE( '', *, *, #254, .T. );
#211 = CARTESIAN_POINT( '', ( 120.000000000000, 0.000000000000000, 6.93889390390723E-015 ) );
#212 = DIRECTION( '', ( -1.00000000000000, 0.000000000000000, 2.98353444545281E-018 ) );
#213 = DIRECTION( '', ( 2.98353444545281E-018, 0.000000000000000, 1.00000000000000 ) );
#214 = ORIENTED_EDGE( '', *, *, #261, .F. );
#215 = ORIENTED_EDGE( '', *, *, #260, .F. );
#216 = CARTESIAN_POINT( '', ( 77.0000000000001, 0.000000000000000, 6.93889390390723E-015 ) );
#217 = DIRECTION( '', ( 1.00000000000000, 0.000000000000000, -5.30836648087057E-018 ) );
#218 = DIRECTION( '', ( 5.30836648087057E-018, 0.000000000000000, 1.00000000000000 ) );
#219 = ORIENTED_EDGE( '', *, *, #262, .F. );
#220 = ORIENTED_EDGE( '', *, *, #263, .F. );
#221 = CARTESIAN_POINT( '', ( 77.0000000000001, 0.000000000000000, 6.93889390390723E-015 ) );
#222 = DIRECTION( '', ( 1.00000000000000, 0.000000000000000, -5.30836648087057E-018 ) );
#223 = DIRECTION( '', ( 5.30836648087057E-018, 0.000000000000000, 1.00000000000000 ) );
#224 = ORIENTED_EDGE( '', *, *, #255, .F. );
#225 = ORIENTED_EDGE( '', *, *, #264, .F. );
#226 = CARTESIAN_POINT( '', ( 5.50000000000001, 0.000000000000000, 7.31844210728947E-015 ) );
#227 = DIRECTION( '', ( -1.00000000000000, 0.000000000000000, 5.30836648087060E-018 ) );
#228 = DIRECTION( '', ( 5.30836648087060E-018, 0.000000000000000, 1.00000000000000 ) );
#229 = ORIENTED_EDGE( '', *, *, #256, .F. );
#230 = ORIENTED_EDGE( '', *, *, #263, .T. );
#231 = CARTESIAN_POINT( '', ( 6.50000000000001, 0.000000000000000, 6.93889390390723E-015 ) );
#232 = DIRECTION( '', ( -1.00000000000000, 0.000000000000000, 2.98353444545281E-018 ) );
#233 = DIRECTION( '', ( 2.98353444545281E-018, 0.000000000000000, 1.00000000000000 ) );
#234 = ORIENTED_EDGE( '', *, *, #265, .F. );
#235 = ORIENTED_EDGE( '', *, *, #266, .F. );
#236 = CARTESIAN_POINT( '', ( 0.000000000000000, 0.000000000000000, 7.34763812293426E-015 ) );
#237 = DIRECTION( '', ( 1.00000000000000, 0.000000000000000, -5.30836648087060E-018 ) );
#238 = DIRECTION( '', ( -5.30836648087060E-018, 0.000000000000000, -1.00000000000000 ) );
#239 = ORIENTED_EDGE( '', *, *, #262, .T. );
#240 = ORIENTED_EDGE( '', *, *, #261, .T. );
#241 = CARTESIAN_POINT( '', ( 110.000000000000, 0.000000000000000, 6.93889390390723E-015 ) );
#242 = DIRECTION( '', ( -1.00000000000000, 0.000000000000000, 2.98353444545281E-018 ) );
#243 = DIRECTION( '', ( 2.98353444545281E-018, 0.000000000000000, 1.00000000000000 ) );
#244 = ORIENTED_EDGE( '', *, *, #266, .T. );
#245 = CARTESIAN_POINT( '', ( -2.52147407841352E-017, 0.000000000000000, 7.34763812293426E-015 ) );
#246 = DIRECTION( '', ( -1.00000000000000, 0.000000000000000, 5.30836648087057E-018 ) );
#247 = DIRECTION( '', ( 5.30836648087057E-018, 0.000000000000000, 1.00000000000000 ) );
#248 = ORIENTED_EDGE( '', *, *, #264, .T. );
#249 = ORIENTED_EDGE( '', *, *, #265, .T. );
#250 = CARTESIAN_POINT( '', ( 77.0000000000001, 0.000000000000000, 6.93889390390723E-015 ) );
#251 = DIRECTION( '', ( 1.00000000000000, 0.000000000000000, -5.30836648087057E-018 ) );
#252 = DIRECTION( '', ( 5.30836648087057E-018, 0.000000000000000, 1.00000000000000 ) );
#253 = EDGE_CURVE( '', #267, #267, #268, .T. );
#254 = EDGE_CURVE( '', #269, #269, #270, .T. );
#255 = EDGE_CURVE( '', #271, #271, #272, .T. );
#256 = EDGE_CURVE( '', #273, #273, #274, .T. );
#257 = EDGE_CURVE( '', #275, #275, #276, .T. );
#258 = EDGE_CURVE( '', #277, #277, #278, .T. );
#259 = EDGE_CURVE( '', #279, #279, #280, .T. );
#260 = EDGE_CURVE( '', #281, #281, #282, .T. );
#261 = EDGE_CURVE( '', #283, #283, #284, .T. );
#262 = EDGE_CURVE( '', #285, #285, #286, .T. );
#263 = EDGE_CURVE( '', #287, #287, #288, .T. );
#264 = EDGE_CURVE( '', #289, #289, #290, .F. );
#265 = EDGE_CURVE( '', #291, #291, #292, .F. );
#266 = EDGE_CURVE( '', #293, #293, #294, .T. );
#267 = VERTEX_POINT( '', #295 );
#268 = CIRCLE( '', #296, 8.00000000000000 );
#269 = VERTEX_POINT( '', #297 );
#270 = CIRCLE( '', #298, 8.00000000000000 );
#271 = VERTEX_POINT( '', #299 );
#272 = CIRCLE( '', #300, 9.00000000000001 );
#273 = VERTEX_POINT( '', #301 );
#274 = CIRCLE( '', #302, 8.00000000000000 );
#275 = VERTEX_POINT( '', #303 );
#276 = CIRCLE( '', #304, 6.66025403784439 );
#277 = VERTEX_POINT( '', #305 );
#278 = CIRCLE( '', #306, 8.00000000000000 );
#279 = VERTEX_POINT( '', #307 );
#280 = CIRCLE( '', #308, 8.00000000000000 );
#281 = VERTEX_POINT( '', #309 );
#282 = CIRCLE( '', #310, 8.00000000000000 );
#283 = VERTEX_POINT( '', #311 );
#284 = CIRCLE( '', #312, 8.00000000000000 );
#285 = VERTEX_POINT( '', #313 );
#286 = CIRCLE( '', #314, 8.00000000000000 );
#287 = VERTEX_POINT( '', #315 );
#288 = CIRCLE( '', #316, 8.00000000000000 );
#289 = VERTEX_POINT( '', #317 );
#290 = CIRCLE( '', #318, 9.50000000000000 );
#291 = VERTEX_POINT( '', #319 );
#292 = CIRCLE( '', #320, 9.50000000000000 );
#293 = VERTEX_POINT( '', #321 );
#294 = CIRCLE( '', #322, 9.00000000000000 );
#295 = CARTESIAN_POINT( '', ( 129.500000000000, 0.000000000000000, -7.99999999999999 ) );
#296 = AXIS2_PLACEMENT_3D( '', #323, #324, #325 );
#297 = CARTESIAN_POINT( '', ( 120.500000000000, 0.000000000000000, 8.00000000000001 ) );
#298 = AXIS2_PLACEMENT_3D( '', #326, #327, #328 );
#299 = CARTESIAN_POINT( '', ( 6.00000000000000, 0.000000000000000, -9.00000000000000 ) );
#300 = AXIS2_PLACEMENT_3D( '', #329, #330, #331 );
#301 = CARTESIAN_POINT( '', ( 6.00000000000001, 0.000000000000000, 8.00000000000001 ) );
#302 = AXIS2_PLACEMENT_3D( '', #332, #333, #334 );
#303 = CARTESIAN_POINT( '', ( 140.000000000000, 0.000000000000000, 6.66025403784439 ) );
#304 = AXIS2_PLACEMENT_3D( '', #335, #336, #337 );
#305 = CARTESIAN_POINT( '', ( 135.000000000000, 0.000000000000000, 8.00000000000001 ) );
#306 = AXIS2_PLACEMENT_3D( '', #338, #339, #340 );
#307 = CARTESIAN_POINT( '', ( 130.500000000000, 0.000000000000000, 8.00000000000001 ) );
#308 = AXIS2_PLACEMENT_3D( '', #341, #342, #343 );
#309 = CARTESIAN_POINT( '', ( 119.500000000000, 0.000000000000000, -7.99999999999999 ) );
#310 = AXIS2_PLACEMENT_3D( '', #344, #345, #346 );
#311 = CARTESIAN_POINT( '', ( 110.500000000000, 0.000000000000000, 8.00000000000001 ) );
#312 = AXIS2_PLACEMENT_3D( '', #347, #348, #349 );
#313 = CARTESIAN_POINT( '', ( 109.500000000000, 0.000000000000000, -7.99999999999999 ) );
#314 = AXIS2_PLACEMENT_3D( '', #350, #351, #352 );
#315 = CARTESIAN_POINT( '', ( 7.00000000000001, 0.000000000000000, 8.00000000000001 ) );
#316 = AXIS2_PLACEMENT_3D( '', #353, #354, #355 );
#317 = CARTESIAN_POINT( '', ( 5.50000000000001, 0.000000000000000, -9.49999999999999 ) );
#318 = AXIS2_PLACEMENT_3D( '', #356, #357, #358 );
#319 = CARTESIAN_POINT( '', ( 0.500000000000000, 0.000000000000000, 9.50000000000001 ) );
#320 = AXIS2_PLACEMENT_3D( '', #359, #360, #361 );
#321 = CARTESIAN_POINT( '', ( 2.25605575436999E-017, 0.000000000000000, 9.00000000000001 ) );
#322 = AXIS2_PLACEMENT_3D( '', #362, #363, #364 );
#323 = CARTESIAN_POINT( '', ( 129.500000000000, 0.000000000000000, 6.94038567112995E-015 ) );
#324 = DIRECTION( '', ( 1.00000000000000, 0.000000000000000, -2.98353444545281E-018 ) );
#325 = DIRECTION( '', ( -2.98353444545281E-018, 0.000000000000000, -1.00000000000000 ) );
#326 = CARTESIAN_POINT( '', ( 120.500000000000, 0.000000000000000, 6.93740213668450E-015 ) );
#327 = DIRECTION( '', ( -1.00000000000000, 0.000000000000000, 2.98353444545281E-018 ) );
#328 = DIRECTION( '', ( 2.98353444545281E-018, 0.000000000000000, 1.00000000000000 ) );
#329 = CARTESIAN_POINT( '', ( 6.00000000000000, 0.000000000000000, 7.31578792404904E-015 ) );
#330 = DIRECTION( '', ( 1.00000000000000, 0.000000000000000, -5.30836648087057E-018 ) );
#331 = DIRECTION( '', ( -5.30836648087057E-018, 0.000000000000000, -1.00000000000000 ) );
#332 = CARTESIAN_POINT( '', ( 6.00000000000001, 0.000000000000000, 7.31578792404904E-015 ) );
#333 = DIRECTION( '', ( -1.00000000000000, 0.000000000000000, 5.30836648087057E-018 ) );
#334 = DIRECTION( '', ( 5.30836648087057E-018, 0.000000000000000, 1.00000000000000 ) );
#335 = CARTESIAN_POINT( '', ( 140.000000000000, 0.000000000000000, 6.60446681561238E-015 ) );
#336 = DIRECTION( '', ( -1.00000000000000, 0.000000000000000, 5.30836648087057E-018 ) );
#337 = DIRECTION( '', ( 5.30836648087057E-018, 0.000000000000000, 1.00000000000000 ) );
#338 = CARTESIAN_POINT( '', ( 135.000000000000, 0.000000000000000, 6.63100864801674E-015 ) );
#339 = DIRECTION( '', ( -1.00000000000000, 0.000000000000000, 5.30836648087057E-018 ) );
#340 = DIRECTION( '', ( 5.30836648087057E-018, 0.000000000000000, 1.00000000000000 ) );
#341 = CARTESIAN_POINT( '', ( 130.500000000000, 0.000000000000000, 6.93740213668450E-015 ) );
#342 = DIRECTION( '', ( -1.00000000000000, 0.000000000000000, 2.98353444545281E-018 ) );
#343 = DIRECTION( '', ( 2.98353444545281E-018, 0.000000000000000, 1.00000000000000 ) );
#344 = CARTESIAN_POINT( '', ( 119.500000000000, 0.000000000000000, 6.94038567112995E-015 ) );
#345 = DIRECTION( '', ( 1.00000000000000, 0.000000000000000, -2.98353444545281E-018 ) );
#346 = DIRECTION( '', ( -2.98353444545281E-018, 0.000000000000000, -1.00000000000000 ) );
#347 = CARTESIAN_POINT( '', ( 110.500000000000, 0.000000000000000, 6.93740213668450E-015 ) );
#348 = DIRECTION( '', ( -1.00000000000000, 0.000000000000000, 2.98353444545281E-018 ) );
#349 = DIRECTION( '', ( 2.98353444545281E-018, 0.000000000000000, 1.00000000000000 ) );
#350 = CARTESIAN_POINT( '', ( 109.500000000000, 0.000000000000000, 6.94038567112995E-015 ) );
#351 = DIRECTION( '', ( 1.00000000000000, 0.000000000000000, -2.98353444545281E-018 ) );
#352 = DIRECTION( '', ( -2.98353444545281E-018, 0.000000000000000, -1.00000000000000 ) );
#353 = CARTESIAN_POINT( '', ( 7.00000000000001, 0.000000000000000, 6.93740213668450E-015 ) );
#354 = DIRECTION( '', ( -1.00000000000000, 0.000000000000000, 2.98353444545281E-018 ) );
#355 = DIRECTION( '', ( 2.98353444545281E-018, 0.000000000000000, 1.00000000000000 ) );
#356 = CARTESIAN_POINT( '', ( 5.50000000000001, 0.000000000000000, 7.31844210728947E-015 ) );
#357 = DIRECTION( '', ( 1.00000000000000, 0.000000000000000, -5.30836648087060E-018 ) );
#358 = DIRECTION( '', ( -5.30836648087060E-018, 0.000000000000000, -1.00000000000000 ) );
#359 = CARTESIAN_POINT( '', ( 0.500000000000000, 0.000000000000000, 7.34498393969383E-015 ) );
#360 = DIRECTION( '', ( -1.00000000000000, 0.000000000000000, 5.30836648087060E-018 ) );
#361 = DIRECTION( '', ( 5.30836648087060E-018, 0.000000000000000, 1.00000000000000 ) );
#362 = CARTESIAN_POINT( '', ( -2.52147407841352E-017, 0.000000000000000, 7.34763812293426E-015 ) );
#363 = DIRECTION( '', ( -1.00000000000000, 0.000000000000000, 5.30836648087057E-018 ) );
#364 = DIRECTION( '', ( 5.30836648087057E-018, 0.000000000000000, 1.00000000000000 ) );
ENDSEC;
END-ISO-10303-21;
