ISO-10303-21;
HEADER;
FILE_DESCRIPTION( ( 'Unknown' ), '1' );
FILE_NAME( 'C:/Documents and Settings/BEATRIZ/Escritorio/ORYMO/COMPONENTES/GUIAS/GUIAS G2/G2_30x85/G2_30x85.stp', 'Unknown', ( 'Unknown' ), ( 'Unknown' ), 'XStep 1.0', 'Unknown', ' ' );
FILE_SCHEMA( ( 'CONFIG_CONTROL_DESIGN' ) );
ENDSEC;
DATA;
#1 = DESIGN_CONTEXT( '', #27, 'design' );
#2 = APPLICATION_PROTOCOL_DEFINITION( 'INTERNATIONAL STANDARD', 'config_control_design', 1994, #27 );
#3 = PRODUCT_CATEGORY_RELATIONSHIP( 'NONE', 'NONE', #28, #29 );
#4 = DATE_AND_TIME( #30, #31 );
#5 = DATE_TIME_ROLE( 'creation_date' );
#6 = DATE_TIME_ROLE( 'classification_date' );
#7 = PERSON_AND_ORGANIZATION_ROLE( 'creator' );
#8 = PERSON_AND_ORGANIZATION_ROLE( 'design_supplier' );
#9 = PERSON_AND_ORGANIZATION_ROLE( 'classification_officer' );
#10 = PERSON_AND_ORGANIZATION_ROLE( 'design_owner' );
#11 = APPROVAL_PERSON_ORGANIZATION( #32, #33, #34 );
#12 = APPROVAL_DATE_TIME( #4, #33 );
#13 = CC_DESIGN_APPROVAL( #33, ( #35, #36, #37 ) );
#14 = CC_DESIGN_DATE_AND_TIME_ASSIGNMENT( #4, #5, ( #37 ) );
#15 = CC_DESIGN_DATE_AND_TIME_ASSIGNMENT( #4, #6, ( #35 ) );
#16 = CC_DESIGN_PERSON_AND_ORGANIZATION_ASSIGNMENT( #32, #10, ( #38 ) );
#17 = CC_DESIGN_PERSON_AND_ORGANIZATION_ASSIGNMENT( #32, #7, ( #37 ) );
#18 = CC_DESIGN_PERSON_AND_ORGANIZATION_ASSIGNMENT( #32, #7, ( #36 ) );
#19 = CC_DESIGN_PERSON_AND_ORGANIZATION_ASSIGNMENT( #32, #8, ( #36 ) );
#20 = CC_DESIGN_SECURITY_CLASSIFICATION( #35, ( #36 ) );
#21 = CC_DESIGN_PERSON_AND_ORGANIZATION_ASSIGNMENT( #32, #9, ( #35 ) );
#22 = SHAPE_DEFINITION_REPRESENTATION( #39, #40 );
#23 =  ( GEOMETRIC_REPRESENTATION_CONTEXT( 3 )GLOBAL_UNCERTAINTY_ASSIGNED_CONTEXT( ( #43 ) )GLOBAL_UNIT_ASSIGNED_CONTEXT( ( #45, #46, #47 ) )REPRESENTATION_CONTEXT( 'NONE', 'WORKSPACE' ) );
#27 = APPLICATION_CONTEXT( 'CONFIGURATION CONTROLLED 3D DESIGNS OF MECHANICAL PARTS AND ASSEMBLIES' );
#28 = PRODUCT_CATEGORY( 'part', 'NONE' );
#29 = PRODUCT_RELATED_PRODUCT_CATEGORY( 'detail', ' ', ( #38 ) );
#30 = CALENDAR_DATE( 2004, 19, 8 );
#31 = LOCAL_TIME( 22, 52, 0.000000000000000, #49 );
#32 = PERSON_AND_ORGANIZATION( #50, #51 );
#33 = APPROVAL( #52, 'SOLID MODEL' );
#34 = APPROVAL_ROLE( 'APPROVED' );
#35 = SECURITY_CLASSIFICATION( '', '', #53 );
#36 = PRODUCT_DEFINITION_FORMATION_WITH_SPECIFIED_SOURCE( ' ', 'NONE', #38, .NOT_KNOWN. );
#37 = PRODUCT_DEFINITION( 'NONE', 'NONE', #36, #1 );
#38 = PRODUCT( '1', '1', 'PART-1-DESC', ( #54 ) );
#39 = PRODUCT_DEFINITION_SHAPE( 'NONE', 'NONE', #37 );
#40 = ADVANCED_BREP_SHAPE_REPRESENTATION( '1', ( #55, #56 ), #23 );
#43 = UNCERTAINTY_MEASURE_WITH_UNIT( LENGTH_MEASURE( 0.00100000000000000 ), #45, '', '' );
#45 =  ( CONVERSION_BASED_UNIT( 'MILLIMETRE', #59 )LENGTH_UNIT(  )NAMED_UNIT( #62 ) );
#46 =  ( CONVERSION_BASED_UNIT( 'RADIAN', #64 )NAMED_UNIT( #66 )PLANE_ANGLE_UNIT(  ) );
#47 =  ( NAMED_UNIT( #66 )SOLID_ANGLE_UNIT(  )SI_UNIT( $, .STERADIAN. ) );
#49 = COORDINATED_UNIVERSAL_TIME_OFFSET( 1, 0, .AHEAD. );
#50 = PERSON( '', 'UNSPECIFIED', $, $, $, $ );
#51 = ORGANIZATION( 'UNSPECIFIED', 'UNSPECIFIED', 'UNSPECIFIED' );
#52 = APPROVAL_STATUS( 'approved' );
#53 = SECURITY_CLASSIFICATION_LEVEL( 'unclassified' );
#54 = MECHANICAL_CONTEXT( '', #27, 'mechanical' );
#55 = MANIFOLD_SOLID_BREP( '1', #71 );
#56 = AXIS2_PLACEMENT_3D( '', #72, #73, #74 );
#59 = LENGTH_MEASURE_WITH_UNIT( LENGTH_MEASURE( 1.00000000000000 ), #75 );
#62 = DIMENSIONAL_EXPONENTS( 1.00000000000000, 0.000000000000000, 0.000000000000000, 0.000000000000000, 0.000000000000000, 0.000000000000000, 0.000000000000000 );
#64 = PLANE_ANGLE_MEASURE_WITH_UNIT( PLANE_ANGLE_MEASURE( 1.00000000000000 ), #76 );
#66 = DIMENSIONAL_EXPONENTS( 0.000000000000000, 0.000000000000000, 0.000000000000000, 0.000000000000000, 0.000000000000000, 0.000000000000000, 0.000000000000000 );
#71 = CLOSED_SHELL( '', ( #77, #78, #79, #80, #81, #82, #83, #84, #85 ) );
#72 = CARTESIAN_POINT( '', ( 0.000000000000000, 0.000000000000000, 0.000000000000000 ) );
#73 = DIRECTION( '', ( 0.000000000000000, 0.000000000000000, 1.00000000000000 ) );
#74 = DIRECTION( '', ( 1.00000000000000, 0.000000000000000, 0.000000000000000 ) );
#75 =  ( NAMED_UNIT( #62 )LENGTH_UNIT(  )SI_UNIT( .MILLI., .METRE. ) );
#76 =  ( NAMED_UNIT( #66 )PLANE_ANGLE_UNIT(  )SI_UNIT( $, .RADIAN. ) );
#77 = ADVANCED_FACE( '', ( #88, #89 ), #90, .T. );
#78 = ADVANCED_FACE( '', ( #91, #92 ), #93, .T. );
#79 = ADVANCED_FACE( '', ( #94 ), #95, .T. );
#80 = ADVANCED_FACE( '', ( #96, #97 ), #98, .F. );
#81 = ADVANCED_FACE( '', ( #99, #100 ), #101, .T. );
#82 = ADVANCED_FACE( '', ( #102, #103 ), #104, .T. );
#83 = ADVANCED_FACE( '', ( #105 ), #106, .T. );
#84 = ADVANCED_FACE( '', ( #107, #108 ), #109, .T. );
#85 = ADVANCED_FACE( '', ( #110, #111 ), #112, .T. );
#88 = FACE_OUTER_BOUND( '', #113, .T. );
#89 = FACE_BOUND( '', #114, .T. );
#90 = PLANE( '', #115 );
#91 = FACE_BOUND( '', #116, .T. );
#92 = FACE_OUTER_BOUND( '', #117, .T. );
#93 = CONICAL_SURFACE( '', #118, 12.5000000000000, 0.261799387799149 );
#94 = FACE_OUTER_BOUND( '', #119, .T. );
#95 = PLANE( '', #120 );
#96 = FACE_OUTER_BOUND( '', #121, .T. );
#97 = FACE_OUTER_BOUND( '', #122, .T. );
#98 = TOROIDAL_SURFACE( '', #123, 12.5000000000000, 0.500000000000000 );
#99 = FACE_OUTER_BOUND( '', #124, .T. );
#100 = FACE_OUTER_BOUND( '', #125, .T. );
#101 = CYLINDRICAL_SURFACE( '', #126, 12.5000000000000 );
#102 = FACE_OUTER_BOUND( '', #127, .T. );
#103 = FACE_OUTER_BOUND( '', #128, .T. );
#104 = CYLINDRICAL_SURFACE( '', #129, 15.0000000000000 );
#105 = FACE_OUTER_BOUND( '', #130, .T. );
#106 = PLANE( '', #131 );
#107 = FACE_BOUND( '', #132, .T. );
#108 = FACE_OUTER_BOUND( '', #133, .T. );
#109 = CONICAL_SURFACE( '', #134, 15.0000000000000, 0.785398163397448 );
#110 = FACE_OUTER_BOUND( '', #135, .T. );
#111 = FACE_BOUND( '', #136, .T. );
#112 = CONICAL_SURFACE( '', #137, 14.5000000000000, 0.785398163397448 );
#113 = EDGE_LOOP( '', ( #138 ) );
#114 = EDGE_LOOP( '', ( #139 ) );
#115 = AXIS2_PLACEMENT_3D( '', #140, #141, #142 );
#116 = EDGE_LOOP( '', ( #143 ) );
#117 = EDGE_LOOP( '', ( #144 ) );
#118 = AXIS2_PLACEMENT_3D( '', #145, #146, #147 );
#119 = EDGE_LOOP( '', ( #148 ) );
#120 = AXIS2_PLACEMENT_3D( '', #149, #150, #151 );
#121 = EDGE_LOOP( '', ( #152 ) );
#122 = EDGE_LOOP( '', ( #153 ) );
#123 = AXIS2_PLACEMENT_3D( '', #154, #155, #156 );
#124 = EDGE_LOOP( '', ( #157 ) );
#125 = EDGE_LOOP( '', ( #158 ) );
#126 = AXIS2_PLACEMENT_3D( '', #159, #160, #161 );
#127 = EDGE_LOOP( '', ( #162 ) );
#128 = EDGE_LOOP( '', ( #163 ) );
#129 = AXIS2_PLACEMENT_3D( '', #164, #165, #166 );
#130 = EDGE_LOOP( '', ( #167 ) );
#131 = AXIS2_PLACEMENT_3D( '', #168, #169, #170 );
#132 = EDGE_LOOP( '', ( #171 ) );
#133 = EDGE_LOOP( '', ( #172 ) );
#134 = AXIS2_PLACEMENT_3D( '', #173, #174, #175 );
#135 = EDGE_LOOP( '', ( #176 ) );
#136 = EDGE_LOOP( '', ( #177 ) );
#137 = AXIS2_PLACEMENT_3D( '', #178, #179, #180 );
#138 = ORIENTED_EDGE( '', *, *, #181, .T. );
#139 = ORIENTED_EDGE( '', *, *, #182, .T. );
#140 = CARTESIAN_POINT( '', ( 18.0000000000000, 0.000000000000000, 15.0000000000000 ) );
#141 = DIRECTION( '', ( 1.00000000000000, 0.000000000000000, -5.30836648087057E-018 ) );
#142 = DIRECTION( '', ( -5.30836648087057E-018, 0.000000000000000, -1.00000000000000 ) );
#143 = ORIENTED_EDGE( '', *, *, #183, .T. );
#144 = ORIENTED_EDGE( '', *, *, #184, .F. );
#145 = CARTESIAN_POINT( '', ( 78.0000000000000, 0.000000000000000, 6.93358553742636E-015 ) );
#146 = DIRECTION( '', ( -1.00000000000000, 0.000000000000000, 5.30836648087057E-018 ) );
#147 = DIRECTION( '', ( 5.30836648087057E-018, 0.000000000000000, 1.00000000000000 ) );
#148 = ORIENTED_EDGE( '', *, *, #183, .F. );
#149 = CARTESIAN_POINT( '', ( 85.0000000000000, 0.000000000000000, 10.6243556529822 ) );
#150 = DIRECTION( '', ( 1.00000000000000, 0.000000000000000, -5.30836648087057E-018 ) );
#151 = DIRECTION( '', ( -5.30836648087057E-018, 0.000000000000000, -1.00000000000000 ) );
#152 = ORIENTED_EDGE( '', *, *, #182, .F. );
#153 = ORIENTED_EDGE( '', *, *, #185, .T. );
#154 = CARTESIAN_POINT( '', ( 18.5000000000000, 0.000000000000000, 6.93889390390723E-015 ) );
#155 = DIRECTION( '', ( -1.00000000000000, 0.000000000000000, 2.98353444545281E-018 ) );
#156 = DIRECTION( '', ( 2.98353444545281E-018, 0.000000000000000, 1.00000000000000 ) );
#157 = ORIENTED_EDGE( '', *, *, #185, .F. );
#158 = ORIENTED_EDGE( '', *, *, #184, .T. );
#159 = CARTESIAN_POINT( '', ( 77.0000000000001, 0.000000000000000, 6.93889390390723E-015 ) );
#160 = DIRECTION( '', ( 1.00000000000000, 0.000000000000000, -5.30836648087057E-018 ) );
#161 = DIRECTION( '', ( 5.30836648087057E-018, 0.000000000000000, 1.00000000000000 ) );
#162 = ORIENTED_EDGE( '', *, *, #186, .T. );
#163 = ORIENTED_EDGE( '', *, *, #187, .T. );
#164 = CARTESIAN_POINT( '', ( 77.0000000000001, 0.000000000000000, 6.93889390390723E-015 ) );
#165 = DIRECTION( '', ( 1.00000000000000, 0.000000000000000, -5.30836648087057E-018 ) );
#166 = DIRECTION( '', ( 5.30836648087057E-018, 0.000000000000000, 1.00000000000000 ) );
#167 = ORIENTED_EDGE( '', *, *, #188, .T. );
#168 = CARTESIAN_POINT( '', ( -3.98127486065293E-017, 0.000000000000000, 7.34763812293426E-015 ) );
#169 = DIRECTION( '', ( -1.00000000000000, 0.000000000000000, 5.30836648087057E-018 ) );
#170 = DIRECTION( '', ( 5.30836648087057E-018, 0.000000000000000, 1.00000000000000 ) );
#171 = ORIENTED_EDGE( '', *, *, #181, .F. );
#172 = ORIENTED_EDGE( '', *, *, #186, .F. );
#173 = CARTESIAN_POINT( '', ( 17.5000000000000, 0.000000000000000, 7.25474170951903E-015 ) );
#174 = DIRECTION( '', ( -1.00000000000000, 0.000000000000000, 5.30836648087060E-018 ) );
#175 = DIRECTION( '', ( 5.30836648087060E-018, 0.000000000000000, 1.00000000000000 ) );
#176 = ORIENTED_EDGE( '', *, *, #187, .F. );
#177 = ORIENTED_EDGE( '', *, *, #188, .F. );
#178 = CARTESIAN_POINT( '', ( 0.000000000000000, 0.000000000000000, 7.34763812293426E-015 ) );
#179 = DIRECTION( '', ( 1.00000000000000, 0.000000000000000, -5.30836648087060E-018 ) );
#180 = DIRECTION( '', ( -5.30836648087060E-018, 0.000000000000000, -1.00000000000000 ) );
#181 = EDGE_CURVE( '', #189, #189, #190, .T. );
#182 = EDGE_CURVE( '', #191, #191, #192, .T. );
#183 = EDGE_CURVE( '', #193, #193, #194, .T. );
#184 = EDGE_CURVE( '', #195, #195, #196, .T. );
#185 = EDGE_CURVE( '', #197, #197, #198, .T. );
#186 = EDGE_CURVE( '', #199, #199, #200, .F. );
#187 = EDGE_CURVE( '', #201, #201, #202, .F. );
#188 = EDGE_CURVE( '', #203, #203, #204, .T. );
#189 = VERTEX_POINT( '', #205 );
#190 = CIRCLE( '', #206, 14.5000000000000 );
#191 = VERTEX_POINT( '', #207 );
#192 = CIRCLE( '', #208, 12.5000000000000 );
#193 = VERTEX_POINT( '', #209 );
#194 = CIRCLE( '', #210, 10.6243556529821 );
#195 = VERTEX_POINT( '', #211 );
#196 = CIRCLE( '', #212, 12.5000000000000 );
#197 = VERTEX_POINT( '', #213 );
#198 = CIRCLE( '', #214, 12.5000000000000 );
#199 = VERTEX_POINT( '', #215 );
#200 = CIRCLE( '', #216, 15.0000000000000 );
#201 = VERTEX_POINT( '', #217 );
#202 = CIRCLE( '', #218, 15.0000000000000 );
#203 = VERTEX_POINT( '', #219 );
#204 = CIRCLE( '', #220, 14.5000000000000 );
#205 = CARTESIAN_POINT( '', ( 18.0000000000000, 0.000000000000000, -14.5000000000000 ) );
#206 = AXIS2_PLACEMENT_3D( '', #221, #222, #223 );
#207 = CARTESIAN_POINT( '', ( 18.0000000000000, 0.000000000000000, 12.5000000000000 ) );
#208 = AXIS2_PLACEMENT_3D( '', #224, #225, #226 );
#209 = CARTESIAN_POINT( '', ( 85.0000000000000, 0.000000000000000, 10.6243556529822 ) );
#210 = AXIS2_PLACEMENT_3D( '', #227, #228, #229 );
#211 = CARTESIAN_POINT( '', ( 78.0000000000000, 0.000000000000000, 12.5000000000000 ) );
#212 = AXIS2_PLACEMENT_3D( '', #230, #231, #232 );
#213 = CARTESIAN_POINT( '', ( 19.0000000000000, 0.000000000000000, 12.5000000000000 ) );
#214 = AXIS2_PLACEMENT_3D( '', #233, #234, #235 );
#215 = CARTESIAN_POINT( '', ( 17.5000000000000, 0.000000000000000, -15.0000000000000 ) );
#216 = AXIS2_PLACEMENT_3D( '', #236, #237, #238 );
#217 = CARTESIAN_POINT( '', ( 0.500000000000001, 0.000000000000000, 15.0000000000000 ) );
#218 = AXIS2_PLACEMENT_3D( '', #239, #240, #241 );
#219 = CARTESIAN_POINT( '', ( 3.71585653660940E-017, 0.000000000000000, 14.5000000000000 ) );
#220 = AXIS2_PLACEMENT_3D( '', #242, #243, #244 );
#221 = CARTESIAN_POINT( '', ( 18.0000000000000, 0.000000000000000, 7.25208752627859E-015 ) );
#222 = DIRECTION( '', ( 1.00000000000000, 0.000000000000000, -5.30836648087057E-018 ) );
#223 = DIRECTION( '', ( -5.30836648087057E-018, 0.000000000000000, -1.00000000000000 ) );
#224 = CARTESIAN_POINT( '', ( 18.0000000000000, 0.000000000000000, 7.25208752627859E-015 ) );
#225 = DIRECTION( '', ( -1.00000000000000, 0.000000000000000, 5.30836648087057E-018 ) );
#226 = DIRECTION( '', ( 5.30836648087057E-018, 0.000000000000000, 1.00000000000000 ) );
#227 = CARTESIAN_POINT( '', ( 85.0000000000000, 0.000000000000000, 6.89642697206026E-015 ) );
#228 = DIRECTION( '', ( -1.00000000000000, 0.000000000000000, 5.30836648087057E-018 ) );
#229 = DIRECTION( '', ( 5.30836648087057E-018, 0.000000000000000, 1.00000000000000 ) );
#230 = CARTESIAN_POINT( '', ( 78.0000000000000, 0.000000000000000, 6.93358553742636E-015 ) );
#231 = DIRECTION( '', ( -1.00000000000000, 0.000000000000000, 5.30836648087057E-018 ) );
#232 = DIRECTION( '', ( 5.30836648087057E-018, 0.000000000000000, 1.00000000000000 ) );
#233 = CARTESIAN_POINT( '', ( 19.0000000000000, 0.000000000000000, 6.93740213668450E-015 ) );
#234 = DIRECTION( '', ( -1.00000000000000, 0.000000000000000, 2.98353444545281E-018 ) );
#235 = DIRECTION( '', ( 2.98353444545281E-018, 0.000000000000000, 1.00000000000000 ) );
#236 = CARTESIAN_POINT( '', ( 17.5000000000000, 0.000000000000000, 7.25474170951903E-015 ) );
#237 = DIRECTION( '', ( 1.00000000000000, 0.000000000000000, -5.30836648087060E-018 ) );
#238 = DIRECTION( '', ( -5.30836648087060E-018, 0.000000000000000, -1.00000000000000 ) );
#239 = CARTESIAN_POINT( '', ( 0.500000000000000, 0.000000000000000, 7.34498393969383E-015 ) );
#240 = DIRECTION( '', ( -1.00000000000000, 0.000000000000000, 5.30836648087060E-018 ) );
#241 = DIRECTION( '', ( 5.30836648087060E-018, 0.000000000000000, 1.00000000000000 ) );
#242 = CARTESIAN_POINT( '', ( -3.98127486065293E-017, 0.000000000000000, 7.34763812293426E-015 ) );
#243 = DIRECTION( '', ( -1.00000000000000, 0.000000000000000, 5.30836648087057E-018 ) );
#244 = DIRECTION( '', ( 5.30836648087057E-018, 0.000000000000000, 1.00000000000000 ) );
ENDSEC;
END-ISO-10303-21;
