ISO-10303-21;
HEADER;
FILE_DESCRIPTION( ( 'Unknown' ), '1' );
FILE_NAME( 'C:/Documents and Settings/BEATRIZ/Escritorio/ORYMO/COMPONENTES/GUIAS/GUIAS GCS/GCS_22x55x076/GCS_22x55x076.stp', 'Unknown', ( 'Unknown' ), ( 'Unknown' ), 'XStep 1.0', 'Unknown', ' ' );
FILE_SCHEMA( ( 'CONFIG_CONTROL_DESIGN' ) );
ENDSEC;
DATA;
#1 = DESIGN_CONTEXT( '', #27, 'design' );
#2 = APPLICATION_PROTOCOL_DEFINITION( 'INTERNATIONAL STANDARD', 'config_control_design', 1994, #27 );
#3 = PRODUCT_CATEGORY_RELATIONSHIP( 'NONE', 'NONE', #28, #29 );
#4 = DATE_AND_TIME( #30, #31 );
#5 = DATE_TIME_ROLE( 'creation_date' );
#6 = DATE_TIME_ROLE( 'classification_date' );
#7 = PERSON_AND_ORGANIZATION_ROLE( 'creator' );
#8 = PERSON_AND_ORGANIZATION_ROLE( 'design_supplier' );
#9 = PERSON_AND_ORGANIZATION_ROLE( 'classification_officer' );
#10 = PERSON_AND_ORGANIZATION_ROLE( 'design_owner' );
#11 = APPROVAL_PERSON_ORGANIZATION( #32, #33, #34 );
#12 = APPROVAL_DATE_TIME( #4, #33 );
#13 = CC_DESIGN_APPROVAL( #33, ( #35, #36, #37 ) );
#14 = CC_DESIGN_DATE_AND_TIME_ASSIGNMENT( #4, #5, ( #37 ) );
#15 = CC_DESIGN_DATE_AND_TIME_ASSIGNMENT( #4, #6, ( #35 ) );
#16 = CC_DESIGN_PERSON_AND_ORGANIZATION_ASSIGNMENT( #32, #10, ( #38 ) );
#17 = CC_DESIGN_PERSON_AND_ORGANIZATION_ASSIGNMENT( #32, #7, ( #37 ) );
#18 = CC_DESIGN_PERSON_AND_ORGANIZATION_ASSIGNMENT( #32, #7, ( #36 ) );
#19 = CC_DESIGN_PERSON_AND_ORGANIZATION_ASSIGNMENT( #32, #8, ( #36 ) );
#20 = CC_DESIGN_SECURITY_CLASSIFICATION( #35, ( #36 ) );
#21 = CC_DESIGN_PERSON_AND_ORGANIZATION_ASSIGNMENT( #32, #9, ( #35 ) );
#22 = SHAPE_DEFINITION_REPRESENTATION( #39, #40 );
#23 =  ( GEOMETRIC_REPRESENTATION_CONTEXT( 3 )GLOBAL_UNCERTAINTY_ASSIGNED_CONTEXT( ( #43 ) )GLOBAL_UNIT_ASSIGNED_CONTEXT( ( #45, #46, #47 ) )REPRESENTATION_CONTEXT( 'NONE', 'WORKSPACE' ) );
#27 = APPLICATION_CONTEXT( 'CONFIGURATION CONTROLLED 3D DESIGNS OF MECHANICAL PARTS AND ASSEMBLIES' );
#28 = PRODUCT_CATEGORY( 'part', 'NONE' );
#29 = PRODUCT_RELATED_PRODUCT_CATEGORY( 'detail', ' ', ( #38 ) );
#30 = CALENDAR_DATE( 2004, 17, 8 );
#31 = LOCAL_TIME( 18, 40, 49.0000000000000, #49 );
#32 = PERSON_AND_ORGANIZATION( #50, #51 );
#33 = APPROVAL( #52, 'SOLID MODEL' );
#34 = APPROVAL_ROLE( 'APPROVED' );
#35 = SECURITY_CLASSIFICATION( '', '', #53 );
#36 = PRODUCT_DEFINITION_FORMATION_WITH_SPECIFIED_SOURCE( ' ', 'NONE', #38, .NOT_KNOWN. );
#37 = PRODUCT_DEFINITION( 'NONE', 'NONE', #36, #1 );
#38 = PRODUCT( '1', '1', 'PART-1-DESC', ( #54 ) );
#39 = PRODUCT_DEFINITION_SHAPE( 'NONE', 'NONE', #37 );
#40 = ADVANCED_BREP_SHAPE_REPRESENTATION( '1', ( #55, #56 ), #23 );
#43 = UNCERTAINTY_MEASURE_WITH_UNIT( LENGTH_MEASURE( 0.00100000000000000 ), #45, '', '' );
#45 =  ( CONVERSION_BASED_UNIT( 'MILLIMETRE', #59 )LENGTH_UNIT(  )NAMED_UNIT( #62 ) );
#46 =  ( CONVERSION_BASED_UNIT( 'RADIAN', #64 )NAMED_UNIT( #66 )PLANE_ANGLE_UNIT(  ) );
#47 =  ( NAMED_UNIT( #66 )SOLID_ANGLE_UNIT(  )SI_UNIT( $, .STERADIAN. ) );
#49 = COORDINATED_UNIVERSAL_TIME_OFFSET( 1, 0, .AHEAD. );
#50 = PERSON( '', 'UNSPECIFIED', $, $, $, $ );
#51 = ORGANIZATION( 'UNSPECIFIED', 'UNSPECIFIED', 'UNSPECIFIED' );
#52 = APPROVAL_STATUS( 'approved' );
#53 = SECURITY_CLASSIFICATION_LEVEL( 'unclassified' );
#54 = MECHANICAL_CONTEXT( '', #27, 'mechanical' );
#55 = MANIFOLD_SOLID_BREP( '1', #71 );
#56 = AXIS2_PLACEMENT_3D( '', #72, #73, #74 );
#59 = LENGTH_MEASURE_WITH_UNIT( LENGTH_MEASURE( 1.00000000000000 ), #75 );
#62 = DIMENSIONAL_EXPONENTS( 1.00000000000000, 0.000000000000000, 0.000000000000000, 0.000000000000000, 0.000000000000000, 0.000000000000000, 0.000000000000000 );
#64 = PLANE_ANGLE_MEASURE_WITH_UNIT( PLANE_ANGLE_MEASURE( 1.00000000000000 ), #76 );
#66 = DIMENSIONAL_EXPONENTS( 0.000000000000000, 0.000000000000000, 0.000000000000000, 0.000000000000000, 0.000000000000000, 0.000000000000000, 0.000000000000000 );
#71 = CLOSED_SHELL( '', ( #77, #78, #79, #80, #81, #82, #83, #84, #85, #86, #87, #88, #89, #90, #91, #92, #93, #94, #95 ) );
#72 = CARTESIAN_POINT( '', ( 0.000000000000000, 0.000000000000000, 0.000000000000000 ) );
#73 = DIRECTION( '', ( 0.000000000000000, 0.000000000000000, 1.00000000000000 ) );
#74 = DIRECTION( '', ( 1.00000000000000, 0.000000000000000, 0.000000000000000 ) );
#75 =  ( NAMED_UNIT( #62 )LENGTH_UNIT(  )SI_UNIT( .MILLI., .METRE. ) );
#76 =  ( NAMED_UNIT( #66 )PLANE_ANGLE_UNIT(  )SI_UNIT( $, .RADIAN. ) );
#77 = ADVANCED_FACE( '', ( #98, #99 ), #100, .T. );
#78 = ADVANCED_FACE( '', ( #101, #102 ), #103, .T. );
#79 = ADVANCED_FACE( '', ( #104, #105 ), #106, .T. );
#80 = ADVANCED_FACE( '', ( #107, #108 ), #109, .T. );
#81 = ADVANCED_FACE( '', ( #110, #111 ), #112, .F. );
#82 = ADVANCED_FACE( '', ( #113 ), #114, .T. );
#83 = ADVANCED_FACE( '', ( #115, #116 ), #117, .T. );
#84 = ADVANCED_FACE( '', ( #118, #119 ), #120, .T. );
#85 = ADVANCED_FACE( '', ( #121, #122 ), #123, .T. );
#86 = ADVANCED_FACE( '', ( #124, #125 ), #126, .T. );
#87 = ADVANCED_FACE( '', ( #127, #128 ), #129, .T. );
#88 = ADVANCED_FACE( '', ( #130, #131 ), #132, .T. );
#89 = ADVANCED_FACE( '', ( #133 ), #134, .T. );
#90 = ADVANCED_FACE( '', ( #135, #136 ), #137, .F. );
#91 = ADVANCED_FACE( '', ( #138, #139 ), #140, .F. );
#92 = ADVANCED_FACE( '', ( #141, #142 ), #143, .T. );
#93 = ADVANCED_FACE( '', ( #144, #145 ), #146, .T. );
#94 = ADVANCED_FACE( '', ( #147, #148 ), #149, .F. );
#95 = ADVANCED_FACE( '', ( #150, #151 ), #152, .T. );
#98 = FACE_OUTER_BOUND( '', #153, .T. );
#99 = FACE_OUTER_BOUND( '', #154, .T. );
#100 = CYLINDRICAL_SURFACE( '', #155, 11.0000000000000 );
#101 = FACE_BOUND( '', #156, .T. );
#102 = FACE_OUTER_BOUND( '', #157, .T. );
#103 = PLANE( '', #158 );
#104 = FACE_BOUND( '', #159, .T. );
#105 = FACE_OUTER_BOUND( '', #160, .T. );
#106 = PLANE( '', #161 );
#107 = FACE_OUTER_BOUND( '', #162, .T. );
#108 = FACE_OUTER_BOUND( '', #163, .T. );
#109 = CYLINDRICAL_SURFACE( '', #164, 14.9995000000000 );
#110 = FACE_OUTER_BOUND( '', #165, .T. );
#111 = FACE_OUTER_BOUND( '', #166, .T. );
#112 = TOROIDAL_SURFACE( '', #167, 15.0000000000000, 0.500000000000000 );
#113 = FACE_OUTER_BOUND( '', #168, .T. );
#114 = PLANE( '', #169 );
#115 = FACE_OUTER_BOUND( '', #170, .T. );
#116 = FACE_OUTER_BOUND( '', #171, .T. );
#117 = CYLINDRICAL_SURFACE( '', #172, 15.0000000000000 );
#118 = FACE_OUTER_BOUND( '', #173, .T. );
#119 = FACE_OUTER_BOUND( '', #174, .T. );
#120 = CYLINDRICAL_SURFACE( '', #175, 11.0000000000000 );
#121 = FACE_OUTER_BOUND( '', #176, .T. );
#122 = FACE_OUTER_BOUND( '', #177, .T. );
#123 = CYLINDRICAL_SURFACE( '', #178, 11.0000000000000 );
#124 = FACE_BOUND( '', #179, .T. );
#125 = FACE_OUTER_BOUND( '', #180, .T. );
#126 = CONICAL_SURFACE( '', #181, 14.9995000000000, 0.785398163397448 );
#127 = FACE_BOUND( '', #182, .T. );
#128 = FACE_OUTER_BOUND( '', #183, .T. );
#129 = CONICAL_SURFACE( '', #184, 11.0000000000000, 0.261799387799148 );
#130 = FACE_BOUND( '', #185, .T. );
#131 = FACE_OUTER_BOUND( '', #186, .T. );
#132 = CONICAL_SURFACE( '', #187, 17.5000000000000, 0.785398163397448 );
#133 = FACE_OUTER_BOUND( '', #188, .T. );
#134 = PLANE( '', #189 );
#135 = FACE_OUTER_BOUND( '', #190, .T. );
#136 = FACE_OUTER_BOUND( '', #191, .T. );
#137 = TOROIDAL_SURFACE( '', #192, 11.0000000000000, 0.500000000000000 );
#138 = FACE_OUTER_BOUND( '', #193, .T. );
#139 = FACE_OUTER_BOUND( '', #194, .T. );
#140 = TOROIDAL_SURFACE( '', #195, 11.0000000000000, 0.500000000000000 );
#141 = FACE_OUTER_BOUND( '', #196, .T. );
#142 = FACE_BOUND( '', #197, .T. );
#143 = PLANE( '', #198 );
#144 = FACE_OUTER_BOUND( '', #199, .T. );
#145 = FACE_BOUND( '', #200, .T. );
#146 = CONICAL_SURFACE( '', #201, 17.0000000000000, 0.785398163397448 );
#147 = FACE_OUTER_BOUND( '', #202, .T. );
#148 = FACE_OUTER_BOUND( '', #203, .T. );
#149 = TOROIDAL_SURFACE( '', #204, 11.5000000000000, 0.500000000000000 );
#150 = FACE_OUTER_BOUND( '', #205, .T. );
#151 = FACE_OUTER_BOUND( '', #206, .T. );
#152 = CYLINDRICAL_SURFACE( '', #207, 17.5000000000000 );
#153 = EDGE_LOOP( '', ( #208 ) );
#154 = EDGE_LOOP( '', ( #209 ) );
#155 = AXIS2_PLACEMENT_3D( '', #210, #211, #212 );
#156 = EDGE_LOOP( '', ( #213 ) );
#157 = EDGE_LOOP( '', ( #214 ) );
#158 = AXIS2_PLACEMENT_3D( '', #215, #216, #217 );
#159 = EDGE_LOOP( '', ( #218 ) );
#160 = EDGE_LOOP( '', ( #219 ) );
#161 = AXIS2_PLACEMENT_3D( '', #220, #221, #222 );
#162 = EDGE_LOOP( '', ( #223 ) );
#163 = EDGE_LOOP( '', ( #224 ) );
#164 = AXIS2_PLACEMENT_3D( '', #225, #226, #227 );
#165 = EDGE_LOOP( '', ( #228 ) );
#166 = EDGE_LOOP( '', ( #229 ) );
#167 = AXIS2_PLACEMENT_3D( '', #230, #231, #232 );
#168 = EDGE_LOOP( '', ( #233 ) );
#169 = AXIS2_PLACEMENT_3D( '', #234, #235, #236 );
#170 = EDGE_LOOP( '', ( #237 ) );
#171 = EDGE_LOOP( '', ( #238 ) );
#172 = AXIS2_PLACEMENT_3D( '', #239, #240, #241 );
#173 = EDGE_LOOP( '', ( #242 ) );
#174 = EDGE_LOOP( '', ( #243 ) );
#175 = AXIS2_PLACEMENT_3D( '', #244, #245, #246 );
#176 = EDGE_LOOP( '', ( #247 ) );
#177 = EDGE_LOOP( '', ( #248 ) );
#178 = AXIS2_PLACEMENT_3D( '', #249, #250, #251 );
#179 = EDGE_LOOP( '', ( #252 ) );
#180 = EDGE_LOOP( '', ( #253 ) );
#181 = AXIS2_PLACEMENT_3D( '', #254, #255, #256 );
#182 = EDGE_LOOP( '', ( #257 ) );
#183 = EDGE_LOOP( '', ( #258 ) );
#184 = AXIS2_PLACEMENT_3D( '', #259, #260, #261 );
#185 = EDGE_LOOP( '', ( #262 ) );
#186 = EDGE_LOOP( '', ( #263 ) );
#187 = AXIS2_PLACEMENT_3D( '', #264, #265, #266 );
#188 = EDGE_LOOP( '', ( #267 ) );
#189 = AXIS2_PLACEMENT_3D( '', #268, #269, #270 );
#190 = EDGE_LOOP( '', ( #271 ) );
#191 = EDGE_LOOP( '', ( #272 ) );
#192 = AXIS2_PLACEMENT_3D( '', #273, #274, #275 );
#193 = EDGE_LOOP( '', ( #276 ) );
#194 = EDGE_LOOP( '', ( #277 ) );
#195 = AXIS2_PLACEMENT_3D( '', #278, #279, #280 );
#196 = EDGE_LOOP( '', ( #281 ) );
#197 = EDGE_LOOP( '', ( #282 ) );
#198 = AXIS2_PLACEMENT_3D( '', #283, #284, #285 );
#199 = EDGE_LOOP( '', ( #286 ) );
#200 = EDGE_LOOP( '', ( #287 ) );
#201 = AXIS2_PLACEMENT_3D( '', #288, #289, #290 );
#202 = EDGE_LOOP( '', ( #291 ) );
#203 = EDGE_LOOP( '', ( #292 ) );
#204 = AXIS2_PLACEMENT_3D( '', #293, #294, #295 );
#205 = EDGE_LOOP( '', ( #296 ) );
#206 = EDGE_LOOP( '', ( #297 ) );
#207 = AXIS2_PLACEMENT_3D( '', #298, #299, #300 );
#208 = ORIENTED_EDGE( '', *, *, #301, .F. );
#209 = ORIENTED_EDGE( '', *, *, #302, .F. );
#210 = CARTESIAN_POINT( '', ( 231.000000000000, 0.000000000000000, 6.93889390390723E-015 ) );
#211 = DIRECTION( '', ( 1.00000000000000, 0.000000000000000, -1.76945549362353E-018 ) );
#212 = DIRECTION( '', ( 1.76945549362353E-018, 0.000000000000000, 1.00000000000000 ) );
#213 = ORIENTED_EDGE( '', *, *, #303, .T. );
#214 = ORIENTED_EDGE( '', *, *, #304, .T. );
#215 = CARTESIAN_POINT( '', ( 55.0000000000000, 0.000000000000000, 14.9995000000000 ) );
#216 = DIRECTION( '', ( 1.00000000000000, 0.000000000000000, -1.76945549362353E-018 ) );
#217 = DIRECTION( '', ( -1.76945549362353E-018, 0.000000000000000, -1.00000000000000 ) );
#218 = ORIENTED_EDGE( '', *, *, #305, .T. );
#219 = ORIENTED_EDGE( '', *, *, #306, .F. );
#220 = CARTESIAN_POINT( '', ( 50.0000000000000, 0.000000000000000, 15.0000000000000 ) );
#221 = DIRECTION( '', ( 1.00000000000000, 0.000000000000000, -1.76945549362353E-018 ) );
#222 = DIRECTION( '', ( -1.76945549362353E-018, 0.000000000000000, -1.00000000000000 ) );
#223 = ORIENTED_EDGE( '', *, *, #307, .T. );
#224 = ORIENTED_EDGE( '', *, *, #305, .F. );
#225 = CARTESIAN_POINT( '', ( 231.000000000000, 0.000000000000000, 6.93889390390723E-015 ) );
#226 = DIRECTION( '', ( 1.00000000000000, 0.000000000000000, -1.76945549362353E-018 ) );
#227 = DIRECTION( '', ( 1.76945549362353E-018, 0.000000000000000, 1.00000000000000 ) );
#228 = ORIENTED_EDGE( '', *, *, #308, .F. );
#229 = ORIENTED_EDGE( '', *, *, #309, .T. );
#230 = CARTESIAN_POINT( '', ( 6.50000000000001, 0.000000000000000, 6.93889390390723E-015 ) );
#231 = DIRECTION( '', ( -1.00000000000000, 0.000000000000000, 2.98353444545281E-018 ) );
#232 = DIRECTION( '', ( 2.98353444545281E-018, 0.000000000000000, 1.00000000000000 ) );
#233 = ORIENTED_EDGE( '', *, *, #310, .T. );
#234 = CARTESIAN_POINT( '', ( -1.54827355692059E-017, 0.000000000000000, 7.34763812293426E-015 ) );
#235 = DIRECTION( '', ( -1.00000000000000, 0.000000000000000, 1.76945549362353E-018 ) );
#236 = DIRECTION( '', ( 1.76945549362353E-018, 0.000000000000000, 1.00000000000000 ) );
#237 = ORIENTED_EDGE( '', *, *, #309, .F. );
#238 = ORIENTED_EDGE( '', *, *, #306, .T. );
#239 = CARTESIAN_POINT( '', ( 231.000000000000, 0.000000000000000, 6.93889390390723E-015 ) );
#240 = DIRECTION( '', ( 1.00000000000000, 0.000000000000000, -1.76945549362353E-018 ) );
#241 = DIRECTION( '', ( 1.76945549362353E-018, 0.000000000000000, 1.00000000000000 ) );
#242 = ORIENTED_EDGE( '', *, *, #311, .T. );
#243 = ORIENTED_EDGE( '', *, *, #312, .F. );
#244 = CARTESIAN_POINT( '', ( 231.000000000000, 0.000000000000000, 6.93889390390723E-015 ) );
#245 = DIRECTION( '', ( 1.00000000000000, 0.000000000000000, -1.76945549362353E-018 ) );
#246 = DIRECTION( '', ( 1.76945549362353E-018, 0.000000000000000, 1.00000000000000 ) );
#247 = ORIENTED_EDGE( '', *, *, #313, .F. );
#248 = ORIENTED_EDGE( '', *, *, #314, .T. );
#249 = CARTESIAN_POINT( '', ( 231.000000000000, 0.000000000000000, 6.93889390390723E-015 ) );
#250 = DIRECTION( '', ( 1.00000000000000, 0.000000000000000, -1.76945549362353E-018 ) );
#251 = DIRECTION( '', ( 1.76945549362353E-018, 0.000000000000000, 1.00000000000000 ) );
#252 = ORIENTED_EDGE( '', *, *, #304, .F. );
#253 = ORIENTED_EDGE( '', *, *, #307, .F. );
#254 = CARTESIAN_POINT( '', ( 54.5000000000000, 0.000000000000000, 7.25120279853178E-015 ) );
#255 = DIRECTION( '', ( -1.00000000000000, 0.000000000000000, 1.76945549362456E-018 ) );
#256 = DIRECTION( '', ( 1.76945549362456E-018, 0.000000000000000, 1.00000000000000 ) );
#257 = ORIENTED_EDGE( '', *, *, #315, .T. );
#258 = ORIENTED_EDGE( '', *, *, #314, .F. );
#259 = CARTESIAN_POINT( '', ( 124.000000000000, 0.000000000000000, 7.12822564172494E-015 ) );
#260 = DIRECTION( '', ( -1.00000000000000, 0.000000000000000, 1.76945549362353E-018 ) );
#261 = DIRECTION( '', ( 1.76945549362353E-018, 0.000000000000000, 1.00000000000000 ) );
#262 = ORIENTED_EDGE( '', *, *, #316, .F. );
#263 = ORIENTED_EDGE( '', *, *, #317, .F. );
#264 = CARTESIAN_POINT( '', ( 5.50000000000001, 0.000000000000000, 7.33790611771933E-015 ) );
#265 = DIRECTION( '', ( -1.00000000000000, 0.000000000000000, 1.76945549362456E-018 ) );
#266 = DIRECTION( '', ( 1.76945549362456E-018, 0.000000000000000, 1.00000000000000 ) );
#267 = ORIENTED_EDGE( '', *, *, #315, .F. );
#268 = CARTESIAN_POINT( '', ( 131.000000000000, 0.000000000000000, 9.12435565298215 ) );
#269 = DIRECTION( '', ( 1.00000000000000, 0.000000000000000, -1.76945549362353E-018 ) );
#270 = DIRECTION( '', ( -1.76945549362353E-018, 0.000000000000000, -1.00000000000000 ) );
#271 = ORIENTED_EDGE( '', *, *, #301, .T. );
#272 = ORIENTED_EDGE( '', *, *, #313, .T. );
#273 = CARTESIAN_POINT( '', ( 112.000000000000, 0.000000000000000, 6.93889390390723E-015 ) );
#274 = DIRECTION( '', ( -1.00000000000000, 0.000000000000000, 2.98353444545281E-018 ) );
#275 = DIRECTION( '', ( 2.98353444545281E-018, 0.000000000000000, 1.00000000000000 ) );
#276 = ORIENTED_EDGE( '', *, *, #312, .T. );
#277 = ORIENTED_EDGE( '', *, *, #302, .T. );
#278 = CARTESIAN_POINT( '', ( 97.0000000000000, 0.000000000000000, 6.93889390390723E-015 ) );
#279 = DIRECTION( '', ( -1.00000000000000, 0.000000000000000, 2.98353444545281E-018 ) );
#280 = DIRECTION( '', ( 2.98353444545281E-018, 0.000000000000000, 1.00000000000000 ) );
#281 = ORIENTED_EDGE( '', *, *, #316, .T. );
#282 = ORIENTED_EDGE( '', *, *, #308, .T. );
#283 = CARTESIAN_POINT( '', ( 6.00000000000000, 0.000000000000000, 17.5000000000000 ) );
#284 = DIRECTION( '', ( 1.00000000000000, 0.000000000000000, -1.76945549362353E-018 ) );
#285 = DIRECTION( '', ( -1.76945549362353E-018, 0.000000000000000, -1.00000000000000 ) );
#286 = ORIENTED_EDGE( '', *, *, #318, .F. );
#287 = ORIENTED_EDGE( '', *, *, #310, .F. );
#288 = CARTESIAN_POINT( '', ( 0.000000000000000, 0.000000000000000, 7.34763812293426E-015 ) );
#289 = DIRECTION( '', ( 1.00000000000000, 0.000000000000000, -1.76945549362456E-018 ) );
#290 = DIRECTION( '', ( -1.76945549362456E-018, 0.000000000000000, -1.00000000000000 ) );
#291 = ORIENTED_EDGE( '', *, *, #311, .F. );
#292 = ORIENTED_EDGE( '', *, *, #303, .F. );
#293 = CARTESIAN_POINT( '', ( 55.5000000000000, 0.000000000000000, 7.24943334303816E-015 ) );
#294 = DIRECTION( '', ( 1.00000000000000, 0.000000000000000, -1.76945549362353E-018 ) );
#295 = DIRECTION( '', ( -1.76945549362353E-018, 0.000000000000000, -1.00000000000000 ) );
#296 = ORIENTED_EDGE( '', *, *, #317, .T. );
#297 = ORIENTED_EDGE( '', *, *, #318, .T. );
#298 = CARTESIAN_POINT( '', ( 231.000000000000, 0.000000000000000, 6.93889390390723E-015 ) );
#299 = DIRECTION( '', ( 1.00000000000000, 0.000000000000000, -1.76945549362353E-018 ) );
#300 = DIRECTION( '', ( 1.76945549362353E-018, 0.000000000000000, 1.00000000000000 ) );
#301 = EDGE_CURVE( '', #319, #319, #320, .T. );
#302 = EDGE_CURVE( '', #321, #321, #322, .T. );
#303 = EDGE_CURVE( '', #323, #323, #324, .F. );
#304 = EDGE_CURVE( '', #325, #325, #326, .T. );
#305 = EDGE_CURVE( '', #327, #327, #328, .T. );
#306 = EDGE_CURVE( '', #329, #329, #330, .T. );
#307 = EDGE_CURVE( '', #331, #331, #332, .F. );
#308 = EDGE_CURVE( '', #333, #333, #334, .T. );
#309 = EDGE_CURVE( '', #335, #335, #336, .T. );
#310 = EDGE_CURVE( '', #337, #337, #338, .T. );
#311 = EDGE_CURVE( '', #339, #339, #340, .T. );
#312 = EDGE_CURVE( '', #341, #341, #342, .T. );
#313 = EDGE_CURVE( '', #343, #343, #344, .T. );
#314 = EDGE_CURVE( '', #345, #345, #346, .T. );
#315 = EDGE_CURVE( '', #347, #347, #348, .T. );
#316 = EDGE_CURVE( '', #349, #349, #350, .T. );
#317 = EDGE_CURVE( '', #351, #351, #352, .F. );
#318 = EDGE_CURVE( '', #353, #353, #354, .F. );
#319 = VERTEX_POINT( '', #355 );
#320 = CIRCLE( '', #356, 11.0000000000000 );
#321 = VERTEX_POINT( '', #357 );
#322 = CIRCLE( '', #358, 11.0000000000000 );
#323 = VERTEX_POINT( '', #359 );
#324 = CIRCLE( '', #360, 11.5000000000000 );
#325 = VERTEX_POINT( '', #361 );
#326 = CIRCLE( '', #362, 14.4995000000000 );
#327 = VERTEX_POINT( '', #363 );
#328 = CIRCLE( '', #364, 14.9995000000000 );
#329 = VERTEX_POINT( '', #365 );
#330 = CIRCLE( '', #366, 15.0000000000000 );
#331 = VERTEX_POINT( '', #367 );
#332 = CIRCLE( '', #368, 14.9995000000000 );
#333 = VERTEX_POINT( '', #369 );
#334 = CIRCLE( '', #370, 15.0000000000000 );
#335 = VERTEX_POINT( '', #371 );
#336 = CIRCLE( '', #372, 15.0000000000000 );
#337 = VERTEX_POINT( '', #373 );
#338 = CIRCLE( '', #374, 17.0000000000000 );
#339 = VERTEX_POINT( '', #375 );
#340 = CIRCLE( '', #376, 11.0000000000000 );
#341 = VERTEX_POINT( '', #377 );
#342 = CIRCLE( '', #378, 11.0000000000000 );
#343 = VERTEX_POINT( '', #379 );
#344 = CIRCLE( '', #380, 11.0000000000000 );
#345 = VERTEX_POINT( '', #381 );
#346 = CIRCLE( '', #382, 11.0000000000000 );
#347 = VERTEX_POINT( '', #383 );
#348 = CIRCLE( '', #384, 9.12435565298215 );
#349 = VERTEX_POINT( '', #385 );
#350 = CIRCLE( '', #386, 17.0000000000000 );
#351 = VERTEX_POINT( '', #387 );
#352 = CIRCLE( '', #388, 17.5000000000000 );
#353 = VERTEX_POINT( '', #389 );
#354 = CIRCLE( '', #390, 17.5000000000000 );
#355 = CARTESIAN_POINT( '', ( 111.500000000000, 0.000000000000000, -11.0000000000000 ) );
#356 = AXIS2_PLACEMENT_3D( '', #391, #392, #393 );
#357 = CARTESIAN_POINT( '', ( 97.5000000000000, 0.000000000000000, 11.0000000000000 ) );
#358 = AXIS2_PLACEMENT_3D( '', #394, #395, #396 );
#359 = CARTESIAN_POINT( '', ( 55.0000000000000, 0.000000000000000, -11.5000000000000 ) );
#360 = AXIS2_PLACEMENT_3D( '', #397, #398, #399 );
#361 = CARTESIAN_POINT( '', ( 55.0000000000000, 0.000000000000000, -14.4995000000000 ) );
#362 = AXIS2_PLACEMENT_3D( '', #400, #401, #402 );
#363 = CARTESIAN_POINT( '', ( 50.0000000000000, 0.000000000000000, 14.9995000000000 ) );
#364 = AXIS2_PLACEMENT_3D( '', #403, #404, #405 );
#365 = CARTESIAN_POINT( '', ( 50.0000000000000, 0.000000000000000, 15.0000000000000 ) );
#366 = AXIS2_PLACEMENT_3D( '', #406, #407, #408 );
#367 = CARTESIAN_POINT( '', ( 54.5000000000000, 0.000000000000000, -14.9995000000000 ) );
#368 = AXIS2_PLACEMENT_3D( '', #409, #410, #411 );
#369 = CARTESIAN_POINT( '', ( 6.00000000000001, 0.000000000000000, 15.0000000000000 ) );
#370 = AXIS2_PLACEMENT_3D( '', #412, #413, #414 );
#371 = CARTESIAN_POINT( '', ( 7.00000000000001, 0.000000000000000, 15.0000000000000 ) );
#372 = AXIS2_PLACEMENT_3D( '', #415, #416, #417 );
#373 = CARTESIAN_POINT( '', ( 1.45980078223941E-017, 0.000000000000000, 17.0000000000000 ) );
#374 = AXIS2_PLACEMENT_3D( '', #418, #419, #420 );
#375 = CARTESIAN_POINT( '', ( 55.5000000000000, 0.000000000000000, -11.0000000000000 ) );
#376 = AXIS2_PLACEMENT_3D( '', #421, #422, #423 );
#377 = CARTESIAN_POINT( '', ( 96.5000000000000, 0.000000000000000, -11.0000000000000 ) );
#378 = AXIS2_PLACEMENT_3D( '', #424, #425, #426 );
#379 = CARTESIAN_POINT( '', ( 112.500000000000, 0.000000000000000, 11.0000000000000 ) );
#380 = AXIS2_PLACEMENT_3D( '', #427, #428, #429 );
#381 = CARTESIAN_POINT( '', ( 124.000000000000, 0.000000000000000, 11.0000000000000 ) );
#382 = AXIS2_PLACEMENT_3D( '', #430, #431, #432 );
#383 = CARTESIAN_POINT( '', ( 131.000000000000, 0.000000000000000, 9.12435565298215 ) );
#384 = AXIS2_PLACEMENT_3D( '', #433, #434, #435 );
#385 = CARTESIAN_POINT( '', ( 6.00000000000000, 0.000000000000000, -17.0000000000000 ) );
#386 = AXIS2_PLACEMENT_3D( '', #436, #437, #438 );
#387 = CARTESIAN_POINT( '', ( 5.50000000000001, 0.000000000000000, -17.5000000000000 ) );
#388 = AXIS2_PLACEMENT_3D( '', #439, #440, #441 );
#389 = CARTESIAN_POINT( '', ( 0.500000000000000, 0.000000000000000, 17.5000000000000 ) );
#390 = AXIS2_PLACEMENT_3D( '', #442, #443, #444 );
#391 = CARTESIAN_POINT( '', ( 111.500000000000, 0.000000000000000, 6.94038567112995E-015 ) );
#392 = DIRECTION( '', ( 1.00000000000000, 0.000000000000000, -2.98353444545281E-018 ) );
#393 = DIRECTION( '', ( -2.98353444545281E-018, 0.000000000000000, -1.00000000000000 ) );
#394 = CARTESIAN_POINT( '', ( 97.5000000000000, 0.000000000000000, 6.93740213668450E-015 ) );
#395 = DIRECTION( '', ( -1.00000000000000, 0.000000000000000, 2.98353444545281E-018 ) );
#396 = DIRECTION( '', ( 2.98353444545281E-018, 0.000000000000000, 1.00000000000000 ) );
#397 = CARTESIAN_POINT( '', ( 55.0000000000000, 0.000000000000000, 7.25031807078497E-015 ) );
#398 = DIRECTION( '', ( 1.00000000000000, 0.000000000000000, -1.76945549362353E-018 ) );
#399 = DIRECTION( '', ( -1.76945549362353E-018, 0.000000000000000, -1.00000000000000 ) );
#400 = CARTESIAN_POINT( '', ( 55.0000000000000, 0.000000000000000, 7.25031807078497E-015 ) );
#401 = DIRECTION( '', ( 1.00000000000000, 0.000000000000000, -1.76945549362353E-018 ) );
#402 = DIRECTION( '', ( -1.76945549362353E-018, 0.000000000000000, -1.00000000000000 ) );
#403 = CARTESIAN_POINT( '', ( 50.0000000000000, 0.000000000000000, 7.25916534825309E-015 ) );
#404 = DIRECTION( '', ( -1.00000000000000, 0.000000000000000, 1.76945549362353E-018 ) );
#405 = DIRECTION( '', ( 1.76945549362353E-018, 0.000000000000000, 1.00000000000000 ) );
#406 = CARTESIAN_POINT( '', ( 50.0000000000000, 0.000000000000000, 7.25916534825309E-015 ) );
#407 = DIRECTION( '', ( -1.00000000000000, 0.000000000000000, 1.76945549362353E-018 ) );
#408 = DIRECTION( '', ( 1.76945549362353E-018, 0.000000000000000, 1.00000000000000 ) );
#409 = CARTESIAN_POINT( '', ( 54.5000000000000, 0.000000000000000, 7.25120279853178E-015 ) );
#410 = DIRECTION( '', ( 1.00000000000000, 0.000000000000000, -1.76945549362456E-018 ) );
#411 = DIRECTION( '', ( -1.76945549362456E-018, 0.000000000000000, -1.00000000000000 ) );
#412 = CARTESIAN_POINT( '', ( 6.00000000000001, 0.000000000000000, 7.33702138997252E-015 ) );
#413 = DIRECTION( '', ( -1.00000000000000, 0.000000000000000, 1.76945549362353E-018 ) );
#414 = DIRECTION( '', ( 1.76945549362353E-018, 0.000000000000000, 1.00000000000000 ) );
#415 = CARTESIAN_POINT( '', ( 7.00000000000001, 0.000000000000000, 6.93740213668450E-015 ) );
#416 = DIRECTION( '', ( -1.00000000000000, 0.000000000000000, 2.98353444545281E-018 ) );
#417 = DIRECTION( '', ( 2.98353444545281E-018, 0.000000000000000, 1.00000000000000 ) );
#418 = CARTESIAN_POINT( '', ( -1.54827355692059E-017, 0.000000000000000, 7.34763812293426E-015 ) );
#419 = DIRECTION( '', ( -1.00000000000000, 0.000000000000000, 1.76945549362353E-018 ) );
#420 = DIRECTION( '', ( 1.76945549362353E-018, 0.000000000000000, 1.00000000000000 ) );
#421 = CARTESIAN_POINT( '', ( 55.5000000000000, 0.000000000000000, 7.24943334303816E-015 ) );
#422 = DIRECTION( '', ( 1.00000000000000, 0.000000000000000, -1.76945549362353E-018 ) );
#423 = DIRECTION( '', ( -1.76945549362353E-018, 0.000000000000000, -1.00000000000000 ) );
#424 = CARTESIAN_POINT( '', ( 96.5000000000000, 0.000000000000000, 6.94038567112995E-015 ) );
#425 = DIRECTION( '', ( 1.00000000000000, 0.000000000000000, -2.98353444545281E-018 ) );
#426 = DIRECTION( '', ( -2.98353444545281E-018, 0.000000000000000, -1.00000000000000 ) );
#427 = CARTESIAN_POINT( '', ( 112.500000000000, 0.000000000000000, 6.93740213668450E-015 ) );
#428 = DIRECTION( '', ( -1.00000000000000, 0.000000000000000, 2.98353444545281E-018 ) );
#429 = DIRECTION( '', ( 2.98353444545281E-018, 0.000000000000000, 1.00000000000000 ) );
#430 = CARTESIAN_POINT( '', ( 124.000000000000, 0.000000000000000, 7.12822564172494E-015 ) );
#431 = DIRECTION( '', ( -1.00000000000000, 0.000000000000000, 1.76945549362353E-018 ) );
#432 = DIRECTION( '', ( 1.76945549362353E-018, 0.000000000000000, 1.00000000000000 ) );
#433 = CARTESIAN_POINT( '', ( 131.000000000000, 0.000000000000000, 7.11583945326958E-015 ) );
#434 = DIRECTION( '', ( -1.00000000000000, 0.000000000000000, 1.76945549362353E-018 ) );
#435 = DIRECTION( '', ( 1.76945549362353E-018, 0.000000000000000, 1.00000000000000 ) );
#436 = CARTESIAN_POINT( '', ( 6.00000000000000, 0.000000000000000, 7.33702138997252E-015 ) );
#437 = DIRECTION( '', ( 1.00000000000000, 0.000000000000000, -1.76945549362353E-018 ) );
#438 = DIRECTION( '', ( -1.76945549362353E-018, 0.000000000000000, -1.00000000000000 ) );
#439 = CARTESIAN_POINT( '', ( 5.50000000000001, 0.000000000000000, 7.33790611771933E-015 ) );
#440 = DIRECTION( '', ( 1.00000000000000, 0.000000000000000, -1.76945549362456E-018 ) );
#441 = DIRECTION( '', ( -1.76945549362456E-018, 0.000000000000000, -1.00000000000000 ) );
#442 = CARTESIAN_POINT( '', ( 0.500000000000000, 0.000000000000000, 7.34675339518745E-015 ) );
#443 = DIRECTION( '', ( -1.00000000000000, 0.000000000000000, 1.76945549362456E-018 ) );
#444 = DIRECTION( '', ( 1.76945549362456E-018, 0.000000000000000, 1.00000000000000 ) );
ENDSEC;
END-ISO-10303-21;
