ISO-10303-21;
HEADER;
FILE_DESCRIPTION( ( 'Unknown' ), '1' );
FILE_NAME( 'C:/Documents and Settings/BEATRIZ/Escritorio/ORYMO/COMPONENTES/TORNILLERIA/TORNILLOS DE CABEZA CILINDRICA CON HEXAGONO INTERIOR/M20x220/M20x220.stp', 'Unknown', ( 'Unknown' ), ( 'Unknown' ), 'XStep 1.0', 'Unknown', ' ' );
FILE_SCHEMA( ( 'CONFIG_CONTROL_DESIGN' ) );
ENDSEC;
DATA;
#1 = DESIGN_CONTEXT( '', #27, 'design' );
#2 = APPLICATION_PROTOCOL_DEFINITION( 'INTERNATIONAL STANDARD', 'config_control_design', 1994, #27 );
#3 = PRODUCT_CATEGORY_RELATIONSHIP( 'NONE', 'NONE', #28, #29 );
#4 = DATE_AND_TIME( #30, #31 );
#5 = DATE_TIME_ROLE( 'creation_date' );
#6 = DATE_TIME_ROLE( 'classification_date' );
#7 = PERSON_AND_ORGANIZATION_ROLE( 'creator' );
#8 = PERSON_AND_ORGANIZATION_ROLE( 'design_supplier' );
#9 = PERSON_AND_ORGANIZATION_ROLE( 'classification_officer' );
#10 = PERSON_AND_ORGANIZATION_ROLE( 'design_owner' );
#11 = APPROVAL_PERSON_ORGANIZATION( #32, #33, #34 );
#12 = APPROVAL_DATE_TIME( #4, #33 );
#13 = CC_DESIGN_APPROVAL( #33, ( #35, #36, #37 ) );
#14 = CC_DESIGN_DATE_AND_TIME_ASSIGNMENT( #4, #5, ( #37 ) );
#15 = CC_DESIGN_DATE_AND_TIME_ASSIGNMENT( #4, #6, ( #35 ) );
#16 = CC_DESIGN_PERSON_AND_ORGANIZATION_ASSIGNMENT( #32, #10, ( #38 ) );
#17 = CC_DESIGN_PERSON_AND_ORGANIZATION_ASSIGNMENT( #32, #7, ( #37 ) );
#18 = CC_DESIGN_PERSON_AND_ORGANIZATION_ASSIGNMENT( #32, #7, ( #36 ) );
#19 = CC_DESIGN_PERSON_AND_ORGANIZATION_ASSIGNMENT( #32, #8, ( #36 ) );
#20 = CC_DESIGN_SECURITY_CLASSIFICATION( #35, ( #36 ) );
#21 = CC_DESIGN_PERSON_AND_ORGANIZATION_ASSIGNMENT( #32, #9, ( #35 ) );
#22 = SHAPE_DEFINITION_REPRESENTATION( #39, #40 );
#23 =  ( GEOMETRIC_REPRESENTATION_CONTEXT( 3 )GLOBAL_UNCERTAINTY_ASSIGNED_CONTEXT( ( #43 ) )GLOBAL_UNIT_ASSIGNED_CONTEXT( ( #45, #46, #47 ) )REPRESENTATION_CONTEXT( 'NONE', 'WORKSPACE' ) );
#27 = APPLICATION_CONTEXT( 'CONFIGURATION CONTROLLED 3D DESIGNS OF MECHANICAL PARTS AND ASSEMBLIES' );
#28 = PRODUCT_CATEGORY( 'part', 'NONE' );
#29 = PRODUCT_RELATED_PRODUCT_CATEGORY( 'detail', ' ', ( #38 ) );
#30 = CALENDAR_DATE( 2004, 26, 8 );
#31 = LOCAL_TIME( 21, 37, 14.0000000000000, #49 );
#32 = PERSON_AND_ORGANIZATION( #50, #51 );
#33 = APPROVAL( #52, 'SOLID MODEL' );
#34 = APPROVAL_ROLE( 'APPROVED' );
#35 = SECURITY_CLASSIFICATION( '', '', #53 );
#36 = PRODUCT_DEFINITION_FORMATION_WITH_SPECIFIED_SOURCE( ' ', 'NONE', #38, .NOT_KNOWN. );
#37 = PRODUCT_DEFINITION( 'NONE', 'NONE', #36, #1 );
#38 = PRODUCT( '1', '1', 'PART-1-DESC', ( #54 ) );
#39 = PRODUCT_DEFINITION_SHAPE( 'NONE', 'NONE', #37 );
#40 = ADVANCED_BREP_SHAPE_REPRESENTATION( '1', ( #55, #56 ), #23 );
#43 = UNCERTAINTY_MEASURE_WITH_UNIT( LENGTH_MEASURE( 0.00100000000000000 ), #45, '', '' );
#45 =  ( CONVERSION_BASED_UNIT( 'MILLIMETRE', #59 )LENGTH_UNIT(  )NAMED_UNIT( #62 ) );
#46 =  ( CONVERSION_BASED_UNIT( 'RADIAN', #64 )NAMED_UNIT( #66 )PLANE_ANGLE_UNIT(  ) );
#47 =  ( NAMED_UNIT( #66 )SOLID_ANGLE_UNIT(  )SI_UNIT( $, .STERADIAN. ) );
#49 = COORDINATED_UNIVERSAL_TIME_OFFSET( 1, 0, .AHEAD. );
#50 = PERSON( '', 'UNSPECIFIED', $, $, $, $ );
#51 = ORGANIZATION( 'UNSPECIFIED', 'UNSPECIFIED', 'UNSPECIFIED' );
#52 = APPROVAL_STATUS( 'approved' );
#53 = SECURITY_CLASSIFICATION_LEVEL( 'unclassified' );
#54 = MECHANICAL_CONTEXT( '', #27, 'mechanical' );
#55 = MANIFOLD_SOLID_BREP( '1', #71 );
#56 = AXIS2_PLACEMENT_3D( '', #72, #73, #74 );
#59 = LENGTH_MEASURE_WITH_UNIT( LENGTH_MEASURE( 1.00000000000000 ), #75 );
#62 = DIMENSIONAL_EXPONENTS( 1.00000000000000, 0.000000000000000, 0.000000000000000, 0.000000000000000, 0.000000000000000, 0.000000000000000, 0.000000000000000 );
#64 = PLANE_ANGLE_MEASURE_WITH_UNIT( PLANE_ANGLE_MEASURE( 1.00000000000000 ), #76 );
#66 = DIMENSIONAL_EXPONENTS( 0.000000000000000, 0.000000000000000, 0.000000000000000, 0.000000000000000, 0.000000000000000, 0.000000000000000, 0.000000000000000 );
#71 = CLOSED_SHELL( '', ( #77, #78, #79, #80, #81, #82, #83, #84, #85, #86, #87, #88, #89 ) );
#72 = CARTESIAN_POINT( '', ( 0.000000000000000, 0.000000000000000, 0.000000000000000 ) );
#73 = DIRECTION( '', ( 0.000000000000000, 0.000000000000000, 1.00000000000000 ) );
#74 = DIRECTION( '', ( 1.00000000000000, 0.000000000000000, 0.000000000000000 ) );
#75 =  ( NAMED_UNIT( #62 )LENGTH_UNIT(  )SI_UNIT( .MILLI., .METRE. ) );
#76 =  ( NAMED_UNIT( #66 )PLANE_ANGLE_UNIT(  )SI_UNIT( $, .RADIAN. ) );
#77 = ADVANCED_FACE( '', ( #92, #93 ), #94, .T. );
#78 = ADVANCED_FACE( '', ( #95, #96 ), #97, .T. );
#79 = ADVANCED_FACE( '', ( #98 ), #99, .T. );
#80 = ADVANCED_FACE( '', ( #100 ), #101, .T. );
#81 = ADVANCED_FACE( '', ( #102, #103 ), #104, .T. );
#82 = ADVANCED_FACE( '', ( #105, #106 ), #107, .T. );
#83 = ADVANCED_FACE( '', ( #108 ), #109, .F. );
#84 = ADVANCED_FACE( '', ( #110 ), #111, .T. );
#85 = ADVANCED_FACE( '', ( #112, #113 ), #114, .T. );
#86 = ADVANCED_FACE( '', ( #115 ), #116, .T. );
#87 = ADVANCED_FACE( '', ( #117 ), #118, .T. );
#88 = ADVANCED_FACE( '', ( #119 ), #120, .T. );
#89 = ADVANCED_FACE( '', ( #121 ), #122, .T. );
#92 = FACE_OUTER_BOUND( '', #123, .T. );
#93 = FACE_BOUND( '', #124, .T. );
#94 = PLANE( '', #125 );
#95 = FACE_OUTER_BOUND( '', #126, .T. );
#96 = FACE_OUTER_BOUND( '', #127, .T. );
#97 = CYLINDRICAL_SURFACE( '', #128, 15.0000000000000 );
#98 = FACE_OUTER_BOUND( '', #129, .T. );
#99 = PLANE( '', #130 );
#100 = FACE_OUTER_BOUND( '', #131, .T. );
#101 = PLANE( '', #132 );
#102 = FACE_OUTER_BOUND( '', #133, .T. );
#103 = FACE_OUTER_BOUND( '', #134, .T. );
#104 = CYLINDRICAL_SURFACE( '', #135, 10.0000000000000 );
#105 = FACE_BOUND( '', #136, .T. );
#106 = FACE_OUTER_BOUND( '', #137, .T. );
#107 = CONICAL_SURFACE( '', #138, 10.0000000000000, 0.785398163397435 );
#108 = FACE_OUTER_BOUND( '', #139, .T. );
#109 = PLANE( '', #140 );
#110 = FACE_OUTER_BOUND( '', #141, .T. );
#111 = PLANE( '', #142 );
#112 = FACE_BOUND( '', #143, .T. );
#113 = FACE_OUTER_BOUND( '', #144, .T. );
#114 = PLANE( '', #145 );
#115 = FACE_OUTER_BOUND( '', #146, .T. );
#116 = PLANE( '', #147 );
#117 = FACE_OUTER_BOUND( '', #148, .T. );
#118 = PLANE( '', #149 );
#119 = FACE_OUTER_BOUND( '', #150, .T. );
#120 = PLANE( '', #151 );
#121 = FACE_OUTER_BOUND( '', #152, .T. );
#122 = PLANE( '', #153 );
#123 = EDGE_LOOP( '', ( #154 ) );
#124 = EDGE_LOOP( '', ( #155, #156, #157, #158, #159, #160 ) );
#125 = AXIS2_PLACEMENT_3D( '', #161, #162, #163 );
#126 = EDGE_LOOP( '', ( #164 ) );
#127 = EDGE_LOOP( '', ( #165 ) );
#128 = AXIS2_PLACEMENT_3D( '', #166, #167, #168 );
#129 = EDGE_LOOP( '', ( #169, #170, #171, #172 ) );
#130 = AXIS2_PLACEMENT_3D( '', #173, #174, #175 );
#131 = EDGE_LOOP( '', ( #176, #177, #178, #179 ) );
#132 = AXIS2_PLACEMENT_3D( '', #180, #181, #182 );
#133 = EDGE_LOOP( '', ( #183 ) );
#134 = EDGE_LOOP( '', ( #184 ) );
#135 = AXIS2_PLACEMENT_3D( '', #185, #186, #187 );
#136 = EDGE_LOOP( '', ( #188 ) );
#137 = EDGE_LOOP( '', ( #189 ) );
#138 = AXIS2_PLACEMENT_3D( '', #190, #191, #192 );
#139 = EDGE_LOOP( '', ( #193, #194, #195, #196, #197, #198 ) );
#140 = AXIS2_PLACEMENT_3D( '', #199, #200, #201 );
#141 = EDGE_LOOP( '', ( #202, #203, #204, #205 ) );
#142 = AXIS2_PLACEMENT_3D( '', #206, #207, #208 );
#143 = EDGE_LOOP( '', ( #209 ) );
#144 = EDGE_LOOP( '', ( #210 ) );
#145 = AXIS2_PLACEMENT_3D( '', #211, #212, #213 );
#146 = EDGE_LOOP( '', ( #214 ) );
#147 = AXIS2_PLACEMENT_3D( '', #215, #216, #217 );
#148 = EDGE_LOOP( '', ( #218, #219, #220, #221 ) );
#149 = AXIS2_PLACEMENT_3D( '', #222, #223, #224 );
#150 = EDGE_LOOP( '', ( #225, #226, #227, #228 ) );
#151 = AXIS2_PLACEMENT_3D( '', #229, #230, #231 );
#152 = EDGE_LOOP( '', ( #232, #233, #234, #235 ) );
#153 = AXIS2_PLACEMENT_3D( '', #236, #237, #238 );
#154 = ORIENTED_EDGE( '', *, *, #239, .T. );
#155 = ORIENTED_EDGE( '', *, *, #240, .T. );
#156 = ORIENTED_EDGE( '', *, *, #241, .T. );
#157 = ORIENTED_EDGE( '', *, *, #242, .T. );
#158 = ORIENTED_EDGE( '', *, *, #243, .T. );
#159 = ORIENTED_EDGE( '', *, *, #244, .T. );
#160 = ORIENTED_EDGE( '', *, *, #245, .T. );
#161 = CARTESIAN_POINT( '', ( 3.30643715532042E-015, 0.000000000000000, 6.93889390390723E-015 ) );
#162 = DIRECTION( '', ( -1.00000000000000, 0.000000000000000, 0.000000000000000 ) );
#163 = DIRECTION( '', ( 0.000000000000000, 0.000000000000000, 1.00000000000000 ) );
#164 = ORIENTED_EDGE( '', *, *, #246, .T. );
#165 = ORIENTED_EDGE( '', *, *, #239, .F. );
#166 = CARTESIAN_POINT( '', ( 62.7738591549296, 0.000000000000000, 7.34763812293426E-015 ) );
#167 = DIRECTION( '', ( 1.00000000000000, 0.000000000000000, 0.000000000000000 ) );
#168 = DIRECTION( '', ( 0.000000000000000, 0.000000000000000, 1.00000000000000 ) );
#169 = ORIENTED_EDGE( '', *, *, #242, .F. );
#170 = ORIENTED_EDGE( '', *, *, #247, .F. );
#171 = ORIENTED_EDGE( '', *, *, #248, .T. );
#172 = ORIENTED_EDGE( '', *, *, #249, .T. );
#173 = CARTESIAN_POINT( '', ( 1.50000000000000, 4.90747728811181, -8.50000000000001 ) );
#174 = DIRECTION( '', ( 0.000000000000000, -0.866025403784438, 0.500000000000000 ) );
#175 = DIRECTION( '', ( 0.000000000000000, -0.500000000000000, -0.866025403784438 ) );
#176 = ORIENTED_EDGE( '', *, *, #241, .F. );
#177 = ORIENTED_EDGE( '', *, *, #250, .F. );
#178 = ORIENTED_EDGE( '', *, *, #251, .T. );
#179 = ORIENTED_EDGE( '', *, *, #247, .T. );
#180 = CARTESIAN_POINT( '', ( 1.50000000000000, -4.90747728811183, -8.50000000000000 ) );
#181 = DIRECTION( '', ( 0.000000000000000, 7.06971575876310E-016, 1.00000000000000 ) );
#182 = DIRECTION( '', ( 0.000000000000000, -1.00000000000000, 7.06971575876310E-016 ) );
#183 = ORIENTED_EDGE( '', *, *, #252, .T. );
#184 = ORIENTED_EDGE( '', *, *, #253, .F. );
#185 = CARTESIAN_POINT( '', ( 62.7738591549296, 0.000000000000000, 7.34763812293426E-015 ) );
#186 = DIRECTION( '', ( 1.00000000000000, 0.000000000000000, 0.000000000000000 ) );
#187 = DIRECTION( '', ( 0.000000000000000, 0.000000000000000, 1.00000000000000 ) );
#188 = ORIENTED_EDGE( '', *, *, #254, .F. );
#189 = ORIENTED_EDGE( '', *, *, #252, .F. );
#190 = CARTESIAN_POINT( '', ( 239.800000000000, 0.000000000000000, 7.34763812293426E-015 ) );
#191 = DIRECTION( '', ( -1.00000000000000, 0.000000000000000, 0.000000000000000 ) );
#192 = DIRECTION( '', ( 0.000000000000000, 0.000000000000000, 1.00000000000000 ) );
#193 = ORIENTED_EDGE( '', *, *, #251, .F. );
#194 = ORIENTED_EDGE( '', *, *, #255, .F. );
#195 = ORIENTED_EDGE( '', *, *, #256, .F. );
#196 = ORIENTED_EDGE( '', *, *, #257, .F. );
#197 = ORIENTED_EDGE( '', *, *, #258, .F. );
#198 = ORIENTED_EDGE( '', *, *, #248, .F. );
#199 = CARTESIAN_POINT( '', ( 1.50000000000000, 4.90747728811181, -8.50000000000001 ) );
#200 = DIRECTION( '', ( 1.00000000000000, -6.12303176911189E-017, 0.000000000000000 ) );
#201 = DIRECTION( '', ( 6.12303176911189E-017, 1.00000000000000, 0.000000000000000 ) );
#202 = ORIENTED_EDGE( '', *, *, #240, .F. );
#203 = ORIENTED_EDGE( '', *, *, #259, .F. );
#204 = ORIENTED_EDGE( '', *, *, #255, .T. );
#205 = ORIENTED_EDGE( '', *, *, #250, .T. );
#206 = CARTESIAN_POINT( '', ( 1.50000000000000, -9.81495457622365, 7.45625825986693E-015 ) );
#207 = DIRECTION( '', ( 0.000000000000000, 0.866025403784439, 0.499999999999999 ) );
#208 = DIRECTION( '', ( 0.000000000000000, -0.499999999999999, 0.866025403784439 ) );
#209 = ORIENTED_EDGE( '', *, *, #253, .T. );
#210 = ORIENTED_EDGE( '', *, *, #246, .F. );
#211 = CARTESIAN_POINT( '', ( 20.0000000000000, 0.000000000000000, 15.0000000000000 ) );
#212 = DIRECTION( '', ( 1.00000000000000, 0.000000000000000, 0.000000000000000 ) );
#213 = DIRECTION( '', ( 0.000000000000000, 0.000000000000000, -1.00000000000000 ) );
#214 = ORIENTED_EDGE( '', *, *, #254, .T. );
#215 = CARTESIAN_POINT( '', ( 240.000000000000, 0.000000000000000, 10.0000000000000 ) );
#216 = DIRECTION( '', ( 1.00000000000000, 0.000000000000000, 0.000000000000000 ) );
#217 = DIRECTION( '', ( 0.000000000000000, 0.000000000000000, -1.00000000000000 ) );
#218 = ORIENTED_EDGE( '', *, *, #243, .F. );
#219 = ORIENTED_EDGE( '', *, *, #249, .F. );
#220 = ORIENTED_EDGE( '', *, *, #258, .T. );
#221 = ORIENTED_EDGE( '', *, *, #260, .T. );
#222 = CARTESIAN_POINT( '', ( 1.50000000000000, 9.81495457622365, 9.86014940717123E-015 ) );
#223 = DIRECTION( '', ( 0.000000000000000, -0.866025403784438, -0.500000000000001 ) );
#224 = DIRECTION( '', ( 0.000000000000000, 0.500000000000001, -0.866025403784438 ) );
#225 = ORIENTED_EDGE( '', *, *, #244, .F. );
#226 = ORIENTED_EDGE( '', *, *, #260, .F. );
#227 = ORIENTED_EDGE( '', *, *, #257, .T. );
#228 = ORIENTED_EDGE( '', *, *, #261, .T. );
#229 = CARTESIAN_POINT( '', ( 1.50000000000000, 4.90747728811182, 8.49999999999999 ) );
#230 = DIRECTION( '', ( 0.000000000000000, -5.30228681907232E-016, -1.00000000000000 ) );
#231 = DIRECTION( '', ( 0.000000000000000, 1.00000000000000, -5.30228681907232E-016 ) );
#232 = ORIENTED_EDGE( '', *, *, #245, .F. );
#233 = ORIENTED_EDGE( '', *, *, #261, .F. );
#234 = ORIENTED_EDGE( '', *, *, #256, .T. );
#235 = ORIENTED_EDGE( '', *, *, #259, .T. );
#236 = CARTESIAN_POINT( '', ( 1.50000000000000, -4.90747728811182, 8.50000000000000 ) );
#237 = DIRECTION( '', ( 0.000000000000000, 0.866025403784438, -0.500000000000001 ) );
#238 = DIRECTION( '', ( 0.000000000000000, 0.500000000000001, 0.866025403784438 ) );
#239 = EDGE_CURVE( '', #262, #262, #263, .T. );
#240 = EDGE_CURVE( '', #264, #265, #266, .T. );
#241 = EDGE_CURVE( '', #265, #267, #268, .T. );
#242 = EDGE_CURVE( '', #267, #269, #270, .T. );
#243 = EDGE_CURVE( '', #269, #271, #272, .T. );
#244 = EDGE_CURVE( '', #271, #273, #274, .T. );
#245 = EDGE_CURVE( '', #273, #264, #275, .T. );
#246 = EDGE_CURVE( '', #276, #276, #277, .T. );
#247 = EDGE_CURVE( '', #278, #267, #279, .T. );
#248 = EDGE_CURVE( '', #278, #280, #281, .T. );
#249 = EDGE_CURVE( '', #280, #269, #282, .T. );
#250 = EDGE_CURVE( '', #283, #265, #284, .T. );
#251 = EDGE_CURVE( '', #283, #278, #285, .T. );
#252 = EDGE_CURVE( '', #286, #286, #287, .F. );
#253 = EDGE_CURVE( '', #288, #288, #289, .T. );
#254 = EDGE_CURVE( '', #290, #290, #291, .T. );
#255 = EDGE_CURVE( '', #292, #283, #293, .T. );
#256 = EDGE_CURVE( '', #294, #292, #295, .T. );
#257 = EDGE_CURVE( '', #296, #294, #297, .T. );
#258 = EDGE_CURVE( '', #280, #296, #298, .T. );
#259 = EDGE_CURVE( '', #292, #264, #299, .T. );
#260 = EDGE_CURVE( '', #296, #271, #300, .T. );
#261 = EDGE_CURVE( '', #294, #273, #301, .T. );
#262 = VERTEX_POINT( '', #302 );
#263 = CIRCLE( '', #303, 15.0000000000000 );
#264 = VERTEX_POINT( '', #304 );
#265 = VERTEX_POINT( '', #305 );
#266 = LINE( '', #306, #307 );
#267 = VERTEX_POINT( '', #308 );
#268 = LINE( '', #309, #310 );
#269 = VERTEX_POINT( '', #311 );
#270 = LINE( '', #312, #313 );
#271 = VERTEX_POINT( '', #314 );
#272 = LINE( '', #315, #316 );
#273 = VERTEX_POINT( '', #317 );
#274 = LINE( '', #318, #319 );
#275 = LINE( '', #320, #321 );
#276 = VERTEX_POINT( '', #322 );
#277 = CIRCLE( '', #323, 15.0000000000000 );
#278 = VERTEX_POINT( '', #324 );
#279 = LINE( '', #325, #326 );
#280 = VERTEX_POINT( '', #327 );
#281 = LINE( '', #328, #329 );
#282 = LINE( '', #330, #331 );
#283 = VERTEX_POINT( '', #332 );
#284 = LINE( '', #333, #334 );
#285 = LINE( '', #335, #336 );
#286 = VERTEX_POINT( '', #337 );
#287 = CIRCLE( '', #338, 10.0000000000000 );
#288 = VERTEX_POINT( '', #339 );
#289 = CIRCLE( '', #340, 10.0000000000000 );
#290 = VERTEX_POINT( '', #341 );
#291 = CIRCLE( '', #342, 9.80000000000000 );
#292 = VERTEX_POINT( '', #343 );
#293 = LINE( '', #344, #345 );
#294 = VERTEX_POINT( '', #346 );
#295 = LINE( '', #347, #348 );
#296 = VERTEX_POINT( '', #349 );
#297 = LINE( '', #350, #351 );
#298 = LINE( '', #352, #353 );
#299 = LINE( '', #354, #355 );
#300 = LINE( '', #356, #357 );
#301 = LINE( '', #358, #359 );
#302 = CARTESIAN_POINT( '', ( 0.000000000000000, 0.000000000000000, 15.0000000000000 ) );
#303 = AXIS2_PLACEMENT_3D( '', #360, #361, #362 );
#304 = CARTESIAN_POINT( '', ( -6.00972786826075E-016, -9.81495457622365, 6.93889390390723E-015 ) );
#305 = CARTESIAN_POINT( '', ( 3.30643715532042E-015, -4.90747728811183, -8.50000000000000 ) );
#306 = CARTESIAN_POINT( '', ( -6.00972786826075E-016, -9.81495457622365, 7.45625825986693E-015 ) );
#307 = VECTOR( '', #363, 1000.00000000000 );
#308 = CARTESIAN_POINT( '', ( 3.00486393413037E-016, 4.90747728811181, -8.50000000000001 ) );
#309 = CARTESIAN_POINT( '', ( -3.00486393413038E-016, -4.90747728811183, -8.50000000000000 ) );
#310 = VECTOR( '', #364, 1000.00000000000 );
#311 = CARTESIAN_POINT( '', ( 6.00972786826075E-016, 9.81495457622365, 1.04083408558608E-014 ) );
#312 = CARTESIAN_POINT( '', ( 3.00486393413037E-016, 4.90747728811181, -8.50000000000001 ) );
#313 = VECTOR( '', #365, 1000.00000000000 );
#314 = CARTESIAN_POINT( '', ( 3.00486393413037E-016, 4.90747728811182, 8.49999999999999 ) );
#315 = CARTESIAN_POINT( '', ( 6.00972786826075E-016, 9.81495457622365, 9.86014940717123E-015 ) );
#316 = VECTOR( '', #366, 1000.00000000000 );
#317 = CARTESIAN_POINT( '', ( -3.00486393413037E-016, -4.90747728811182, 8.50000000000000 ) );
#318 = CARTESIAN_POINT( '', ( 3.00486393413037E-016, 4.90747728811182, 8.49999999999999 ) );
#319 = VECTOR( '', #367, 1000.00000000000 );
#320 = CARTESIAN_POINT( '', ( -3.00486393413037E-016, -4.90747728811182, 8.50000000000000 ) );
#321 = VECTOR( '', #368, 1000.00000000000 );
#322 = CARTESIAN_POINT( '', ( 20.0000000000000, 0.000000000000000, 15.0000000000000 ) );
#323 = AXIS2_PLACEMENT_3D( '', #369, #370, #371 );
#324 = CARTESIAN_POINT( '', ( 1.50000000000000, 4.90747728811181, -8.50000000000001 ) );
#325 = CARTESIAN_POINT( '', ( 1.50000000000000, 4.90747728811181, -8.50000000000001 ) );
#326 = VECTOR( '', #372, 1000.00000000000 );
#327 = CARTESIAN_POINT( '', ( 1.50000000000000, 9.81495457622365, 1.04083408558608E-014 ) );
#328 = CARTESIAN_POINT( '', ( 1.50000000000000, 4.90747728811181, -8.50000000000001 ) );
#329 = VECTOR( '', #373, 1000.00000000000 );
#330 = CARTESIAN_POINT( '', ( 1.50000000000000, 9.81495457622365, 1.04083408558608E-014 ) );
#331 = VECTOR( '', #374, 1000.00000000000 );
#332 = CARTESIAN_POINT( '', ( 1.50000000000000, -4.90747728811183, -8.50000000000000 ) );
#333 = CARTESIAN_POINT( '', ( 1.50000000000000, -4.90747728811183, -8.50000000000000 ) );
#334 = VECTOR( '', #375, 1000.00000000000 );
#335 = CARTESIAN_POINT( '', ( 1.50000000000000, -4.90747728811183, -8.50000000000000 ) );
#336 = VECTOR( '', #376, 1000.00000000000 );
#337 = CARTESIAN_POINT( '', ( 239.800000000000, 0.000000000000000, -9.99999999999999 ) );
#338 = AXIS2_PLACEMENT_3D( '', #377, #378, #379 );
#339 = CARTESIAN_POINT( '', ( 20.0000000000000, 0.000000000000000, 10.0000000000000 ) );
#340 = AXIS2_PLACEMENT_3D( '', #380, #381, #382 );
#341 = CARTESIAN_POINT( '', ( 240.000000000000, 0.000000000000000, -9.79999999999999 ) );
#342 = AXIS2_PLACEMENT_3D( '', #383, #384, #385 );
#343 = CARTESIAN_POINT( '', ( 1.50000000000000, -9.81495457622365, 6.93889390390723E-015 ) );
#344 = CARTESIAN_POINT( '', ( 1.50000000000000, -9.81495457622365, 7.45625825986693E-015 ) );
#345 = VECTOR( '', #386, 1000.00000000000 );
#346 = CARTESIAN_POINT( '', ( 1.50000000000000, -4.90747728811182, 8.50000000000000 ) );
#347 = CARTESIAN_POINT( '', ( 1.50000000000000, -4.90747728811182, 8.50000000000000 ) );
#348 = VECTOR( '', #387, 1000.00000000000 );
#349 = CARTESIAN_POINT( '', ( 1.50000000000000, 4.90747728811182, 8.49999999999999 ) );
#350 = CARTESIAN_POINT( '', ( 1.50000000000000, 4.90747728811182, 8.49999999999999 ) );
#351 = VECTOR( '', #388, 1000.00000000000 );
#352 = CARTESIAN_POINT( '', ( 1.50000000000000, 9.81495457622365, 9.86014940717123E-015 ) );
#353 = VECTOR( '', #389, 1000.00000000000 );
#354 = CARTESIAN_POINT( '', ( 1.50000000000000, -9.81495457622365, 6.93889390390723E-015 ) );
#355 = VECTOR( '', #390, 1000.00000000000 );
#356 = CARTESIAN_POINT( '', ( 1.50000000000000, 4.90747728811182, 8.49999999999999 ) );
#357 = VECTOR( '', #391, 1000.00000000000 );
#358 = CARTESIAN_POINT( '', ( 1.50000000000000, -4.90747728811182, 8.50000000000000 ) );
#359 = VECTOR( '', #392, 1000.00000000000 );
#360 = CARTESIAN_POINT( '', ( 0.000000000000000, 0.000000000000000, 7.34763812293426E-015 ) );
#361 = DIRECTION( '', ( -1.00000000000000, 0.000000000000000, 0.000000000000000 ) );
#362 = DIRECTION( '', ( 0.000000000000000, 0.000000000000000, 1.00000000000000 ) );
#363 = DIRECTION( '', ( 3.06151588455594E-017, 0.499999999999999, -0.866025403784439 ) );
#364 = DIRECTION( '', ( 6.12303176911189E-017, 1.00000000000000, -7.06971575876310E-016 ) );
#365 = DIRECTION( '', ( 3.06151588455595E-017, 0.500000000000000, 0.866025403784438 ) );
#366 = DIRECTION( '', ( -3.06151588455595E-017, -0.500000000000001, 0.866025403784438 ) );
#367 = DIRECTION( '', ( -6.12303176911189E-017, -1.00000000000000, 5.30228681907232E-016 ) );
#368 = DIRECTION( '', ( -3.06151588455595E-017, -0.500000000000001, -0.866025403784438 ) );
#369 = CARTESIAN_POINT( '', ( 20.0000000000000, 0.000000000000000, 7.34763812293426E-015 ) );
#370 = DIRECTION( '', ( -1.00000000000000, 0.000000000000000, 0.000000000000000 ) );
#371 = DIRECTION( '', ( 0.000000000000000, 0.000000000000000, 1.00000000000000 ) );
#372 = DIRECTION( '', ( -1.00000000000000, 0.000000000000000, 0.000000000000000 ) );
#373 = DIRECTION( '', ( 3.06151588455595E-017, 0.500000000000000, 0.866025403784438 ) );
#374 = DIRECTION( '', ( -1.00000000000000, 0.000000000000000, 0.000000000000000 ) );
#375 = DIRECTION( '', ( -1.00000000000000, 0.000000000000000, 0.000000000000000 ) );
#376 = DIRECTION( '', ( 6.12303176911189E-017, 1.00000000000000, -7.06971575876310E-016 ) );
#377 = CARTESIAN_POINT( '', ( 239.800000000000, 0.000000000000000, 7.34763812293426E-015 ) );
#378 = DIRECTION( '', ( 1.00000000000000, 0.000000000000000, 0.000000000000000 ) );
#379 = DIRECTION( '', ( 0.000000000000000, 0.000000000000000, -1.00000000000000 ) );
#380 = CARTESIAN_POINT( '', ( 20.0000000000000, 0.000000000000000, 7.34763812293426E-015 ) );
#381 = DIRECTION( '', ( -1.00000000000000, 0.000000000000000, 0.000000000000000 ) );
#382 = DIRECTION( '', ( 0.000000000000000, 0.000000000000000, 1.00000000000000 ) );
#383 = CARTESIAN_POINT( '', ( 240.000000000000, 0.000000000000000, 7.34763812293426E-015 ) );
#384 = DIRECTION( '', ( 1.00000000000000, 0.000000000000000, 0.000000000000000 ) );
#385 = DIRECTION( '', ( 0.000000000000000, 0.000000000000000, -1.00000000000000 ) );
#386 = DIRECTION( '', ( 3.06151588455594E-017, 0.499999999999999, -0.866025403784439 ) );
#387 = DIRECTION( '', ( -3.06151588455595E-017, -0.500000000000001, -0.866025403784438 ) );
#388 = DIRECTION( '', ( -6.12303176911189E-017, -1.00000000000000, 5.30228681907232E-016 ) );
#389 = DIRECTION( '', ( -3.06151588455595E-017, -0.500000000000001, 0.866025403784438 ) );
#390 = DIRECTION( '', ( -1.00000000000000, 0.000000000000000, 0.000000000000000 ) );
#391 = DIRECTION( '', ( -1.00000000000000, 0.000000000000000, 0.000000000000000 ) );
#392 = DIRECTION( '', ( -1.00000000000000, 0.000000000000000, 0.000000000000000 ) );
ENDSEC;
END-ISO-10303-21;
